» » »

Muscle Memory Tabs (ver.1)

Artists:  A B C D E F G H I J K L M N O P Q R S T U V W X Y Z # 

Muscle Memory Tabs (ver.1)

Dananananaykroyd
Rating:
4/5 (4 votes)

Hard to play? Try these video lessons and learn fast.
                tuning: EADGAe
 
i re-tabbed this because the first time i tabbed it it was my first 
and it sucked real bad so now this is it again and its super all star
smash party mouth bangin' dope rope pope
        Intro
e|-----------------------------------------------------------|
A|-5-5--5/7--7---7-7--7/9-9--9-9--9/10-10--3-3-3-3-3-3-3-3---|
G|-0-0--0-0--0---0-0--0---0--0-0--0----0---0-0-0-0-0-0-0-0---|
D|-0-0--0-0--0---0-0--0---0--0-0--0----0---0-0-0-0-0-0-0-0---|
A|-5-5--5/7--7---7-7--7/9-9--9-9--9/10-10--3-3-3-3-3-3-3-3---|
E|-----------------------------------------------------------|

e|------------------------------------------------------|
A|-5-5--5/7--7---7-7--7/9-9--9-9--9/10-10--3-3-3-3-5~---|
G|-0-0--0-0--0---0-0--0---0--0-0--0----0---0-0-0-0-0~---|
D|-0-0--0-0--0---0-0--0---0--0-0--0----0---0-0-0-0-0~---|
A|-5-5--5/7--7---7-7--7/9-9--9-9--9/10-10--3-3-3-3-5~---|
E|------------------------------------------------------|

        Chorus
e|-----------------------------------------------------------|
A|-5-5--5/7--7---7-7--7/9-9--9-9--9/10-10--3-3-3-3-3-3-3-3---|
G|-0-0--0-0--0---0-0--0---0--0-0--0----0---0-0-0-0-0-0-0-0---|
D|-0-0--0-0--0---0-0--0---0--0-0--0----0---0-0-0-0-0-0-0-0---| x4
A|-5-5--5/7--7---7-7--7/9-9--9-9--9/10-10--3-3-3-3-3-3-3-3---|
E|-----------------------------------------------------------|


        Verse           x3
e|------------------------|------------------------|
A|----5--5----------------|--5--5--7--7--9--9--10--|
G|----0--0----0h2h4-0-----|--0--0--0--0--0--0--0---|
D|----0--0------------0h2-|--0--0--0--0--0--0--0---|  x2
A|----5--5----------------|--5--5--7--7--9--9--10--|
E|------------------------|------------------------|

e|-----------------------------------------0----|
B|--3-3--3333-3--3-3--3333-3--3-3--3333-3--0----|
G|--0-0--0000-0--0-0--0000-0--0-0--0000-0--2----|
D|--0-0--0000-0--0-0--0000-0--0-0--0000-0--2----|
A|--3-3--3333-3--3-3--3333-3--3-3--3333-3--0----|
E|-----------------------------------------0----|

Chorus
e|-----------------------------------------------------------|
A|-5-5--5/7--7---7-7--7/9-9--9-9--9/10-10--3-3-3-3-3-3-3-3---|
G|-0-0--0-0--0---0-0--0---0--0-0--0----0---0-0-0-0-0-0-0-0---|
D|-0-0--0-0--0---0-0--0---0--0-0--0----0---0-0-0-0-0-0-0-0---| x4
A|-5-5--5/7--7---7-7--7/9-9--9-9--9/10-10--3-3-3-3-3-3-3-3---|
E|-----------------------------------------------------------|

        Verse           x3
e|------------------------|------------------------|
A|----5--5----------------|--5--5--7--7--9--9--10--|
G|----0--0----0h2h4-0-----|--0--0--0--0--0--0--0---|
D|----0--0------------0h2-|--0--0--0--0--0--0--0---|  x2
A|----5--5----------------|--5--5--7--7--9--9--10--|
E|------------------------|------------------------|

e|-----------------------------------------0----|
B|--3-3--3333-3--3-3--3333-3--3-3--3333-3--0----|
G|--0-0--0000-0--0-0--0000-0--0-0--0000-0--2----|
D|--0-0--0000-0--0-0--0000-0--0-0--0000-0--2----|
A|--3-3--3333-3--3-3--3333-3--3-3--3333-3--0----|
E|-----------------------------------------0----|

        Solo (lead guitar plays this while the rhythm guitar plays the chorus chords)
e|---------------------------------------------------------------------------|
A|---------------------------------------------------------------------19bu--|
G|--------19-19-19-19-16---19-16--19-19-19-19-16--19-16-19-16-14-16-14-------|
D|---------------------------------------------------------------------------|
A|---------------------------------------------------------------------------|
E|---------------------------------------------------------------------------|
                                
e|------------------------------------------------------------------------|
A|------------------------------------------------------------------19b---|
G|--------19-19-19-19-16---19-16--19-16-14-16-14--12-14-16-19-21-19-------|
D|------------------------------------------------------------------------|
A|------------------------------------------------------------------------|
E|------------------------------------------------------------------------|

cant figure out the rest of the solo sooooooorry
the rhyyhtmhtmrhm guitar plays the chorus chords again though, twice

                Breakdown
e|--[crazy sounds]-------------------------------------------|
A|--[crazy sounds]----5-5-55555-9-9-9-9--7-7-7777-10101010---|
G|--[crazy sounds]----0-0-00000-0-0-0-0--0-0-0000-0-0-0-0----|
D|--[crazy sounds]----0-0-00000-0-0-0-0--0-0-0000-0-0-0-0----|
A|--[crazy sounds]----5-5-55555-9-9-9-9--7-7-7777-10101010---|
E|--[crazy sounds]-------------------------------------------|

e|-----------------------------------------------|
A|--5--7--9-9-9-9-10101010---5--7--9--10-12bu----|
G|--0--0--0-0-0-0-0-0-0-0----0--0--0--0--0-------|
D|--0--0--0-0-0-0-0-0-0-0----0--0--0--0--0-------|
A|--5--7--9-9-9-9-10101010---5--7--9--10-12bu----|
E|-----------------------------------------------|


        Verse           x3
e|------------------------|------------------------|
A|----5--5----------------|--5--5--7--7--9--9--10--|
G|----0--0----0h2h4-0-----|--0--0--0--0--0--0--0---|
D|----0--0------------0h2-|--0--0--0--0--0--0--0---|  x2
A|----5--5----------------|--5--5--7--7--9--9--10--|
E|------------------------|------------------------|

    
e|-----------------------------------------0----|
A|--3-3--3333-3--3-3--3333-3--3-3--3333-3--0----|
G|--0-0--0000-0--0-0--0000-0--0-0--0000-0--2----|
D|--0-0--0000-0--0-0--0000-0--0-0--0000-0--2----|
A|--3-3--3333-3--3-3--3333-3--3-3--3333-3--0----|
E|-----------------------------------------0----|

        Chorus
e|-----------------------------------------------------------|
A|-5-5--5/7--7---7-7--7/9-9--9-9--9/10-10--3-3-3-3-3-3-3-3---|
G|-0-0--0-0--0---0-0--0---0--0-0--0----0---0-0-0-0-0-0-0-0---|
D|-0-0--0-0--0---0-0--0---0--0-0--0----0---0-0-0-0-0-0-0-0---| x2
A|-5-5--5/7--7---7-7--7/9-9--9-9--9/10-10--3-3-3-3-3-3-3-3---|
E|-----------------------------------------------------------|

        Ending
e|--------------------------------------|
A|----5--5-----------------------5--5---|
G|----0--0---0h2h4-0-------------0--0---|
D|----0--0-----------0h2p0h2p0---0--0---|
A|----5--5-----------------------5--5---|
E|--------------------------------------|


three praise rangs and a hosanna to ye, holy soldier
            
Hard to play? Try these video lessons and learn fast. | Correct




comments powered by Disqus
↑ Back to top | Tablatures and chords are parodies/interpretations of the original songs. You may use it for private study, scholarship, research or language learning purposes only