» » »

Dananananaykroyd, Hey Everyone Tabs (ver.1)

Artists:  A B C D E F G H I J K L M N O P Q R S T U V W X Y Z # 

Hey Everyone Tabs (ver.1)

Dananananaykroyd Tabs
Rating:
5/5 (1 vote)
Hey Everyone lessons Tabs too difficult? Try these video lessons and learn fast
                Hey Everyone 
Hey Everyone!
Dananananaykroyd 

This is just a rough idea. The twiddly riff obviously isn't
100% so any help with that would be great. I used the following
video to help me figure parts of it out: 


I'm going to try and do more but they are so damn hard to tab out, 
so again any help would be appreciated!

Enjoy.


e|----------------------|
B|----------------------|
G|-7--7-7-7--4/7--7-7-7-| 
D|-x--x-x-x--x-x--x-x-x-|
A|-5--5-5-5--2/5--5-5-5-|
E|----------------------|

|------------------------|
|------------------------|
|-7--7-9-11--4/7--11-9-7-|
|-x--x-x-x---x-x--x--x-x-|
|-5--5-7-9---2/5--9--7-5-|
|------------------------|

|-------------------------------|
|------------7------------------|
|--------9-7----------------9-7-|
|----7p0----------------7p0-----|
|-7h9---9------------7h9---9----|
|--------------99999------------|

|----------------------|
|----------------------|
|-7--7-7-7--4/7--7-7-7-|
|-x--x-x-x--x-x--x-x-x-| 
|-5--5-5-5--2/5--5-5-5-|
|----------------------|

|------------------------|
|------------------------|
|-7--7-9-11--4/7--11-9-7-|
|-x--x-x-x---x-x--x--x-x-|
|-5--5-7-9---2/5--9--7-5-|
|------------------------|

|------------|
|------------|
|-4~~~/16~~~-|
|-x----x-----|
|-2~~~/14~~~-|
|------------|
            

comments powered by Disqus
↑ Back to top | Dananananaykroyd Tabs for Hey Everyone. Lyrics for acoustic guitar and electric guitar. Tablatures and chords are parodies/interpretations of the original songs. You may use it for private study, scholarship, research or language learning purposes only