» » »

Good Time Tabs (ver.1)

Artists:  A B C D E F G H I J K L M N O P Q R S T U V W X Y Z # 

Good Time Tabs (ver.1)

Dananananaykroyd
Rating:
0/5 (0 votes)

Hard to play? Try these video lessons and learn fast.
                intro/riff tuning is EADGAE (b string down a step)

E|----------------------------|------------------------|
A|------------------4-4-4/7---|----------7/9--7/12-----|
G|--------2-2-2-1----------4--|---------4----4---------|
D|-2-2-2---------2-----------6|-6-6-4-2----------------|
A|-2-2-2-2--------2-----------|-6-6-4-2----------------|
E|-0-0-0----------------------|-4-4-2-0----------------|

E|------------------------------|
A|-------------------4-4-4/7----|
G|--------2-2-2-1------------4--|
D|----------------2------------6|
A|------2----------2------------|
E|------------------------------|

E|-----------------------------|
A|-----------------------------|thanks to JjjDdd for working this bit out
G|-----------------------------|
D|-----------------------------|
A|-------------0-1-0---2-------|
E|-4-4-2-4-2-4-------4-0-------|

and you pretty much just repeat this until chorus (except 1st 3 chords)
Chorus I'm not so sure:
these chords
E|-----------|
A|-----------|
G|-6---------|
D|-6-----2---|
A|-4-----2---|
E|-------0---|

E|----------------|
A|---------11hp12-|
G|-9-11-13--------|
D|----------------|
A|-7-9--11--------|
E|----------------|

E|-----------|
A|-----------|
G|-6---------|
D|-6-----2---|
A|-4-----2---|
E|-------0---|

E|----------------|
A|---------14hp16-|
G|-9-11-13--------|
D|----------------|
A|-7-9--11--------|
E|----------------|

repeat

"temperature rises" bit
E|----------------|
A|----------------|
G|-9-6-4----------|
D|-9-6-4-6--------|
A|-7-4-2-6--------|
E|-------4--------|

E|----------------|
A|----------------|
G|-9-6-4----9-13--|
D|-9-6-4-6--9-13--|
A|-7-4-2-6--7-11--|
E|-------4--------|

Still working on it it's probably no 100% dananananaykroyd's never that simple
            
Hard to play? Try these video lessons and learn fast. | Correct




comments powered by Disqus
↑ Back to top | Tablatures and chords are parodies/interpretations of the original songs. You may use it for private study, scholarship, research or language learning purposes only