» » »

Dananananaykroyd, Cameo Tabs (ver.1)

Artists:  A B C D E F G H I J K L M N O P Q R S T U V W X Y Z # 

Cameo Tabs (ver.1)

Dananananaykroyd Tabs
Rating:
0/5 (0 votes)
Cameo lessons Tabs too difficult? Try these video lessons and learn fast
                -------------------------------------------------------------------------------
-------------------------------------------------------------------------------

song found on There Is A Way deluxe edition second disk
	
	Main riff
e|-------------------------------------------------|
B|-------------------------------------------------|
G|-13-13-------13-13-------13-13----------------16-|
D|-------------------------------------------12----|
A|-11-11-------11-11-------11-11-------12h14-------|
E|-------0-0-0-------0-0-0-------0-0-0-------------|
         * * *       * * *       * * *
e|--------------------------------------------------------|
B|--------------------------------------------------------|
G|-13-13-------13-13----------------16--11-11-11-14-14-14-|
D|-------------------------------12-----------------------|
A|-11-11-------11-11-------12h14--------9--9--9--12-12-12-|
E|-------0-0-0-------0-0-0--------------------------------|
         * * *       * * *
	

	break
e|-------------------------------------------------------|
B|------------------6bu----------------------------------|
G|------------------9bu----------------------------------|
D|-------------------------------------------------------|
A|-------------------------------------------------------|
E|---0~~~~~~~~-------------------------------------------|

e|---------------------------------------------|
B|---------------------------------------------|
G|---------------------------------------------|
D|--9-9-------9-9-------9-9--------------------|
A|--7-7-------7-7-------7-7--------9-9--7-7----|
E|------0-0-0-----0-0-0-----0-0-0--7-7--5-5----|
        * * *     * * *     * * *
	last time
e|---------------------------------------------|
B|---------------------------------------------|
G|---------------------------------------------|
D|--9-9-------9-9------------------------------|
A|--7-7-------7-7---------9----12--------------|
E|------0-0-0-----0-0-0---7----10--------------|
        * * *     * * *



	ending (OFF YOU GO YOU SMALL BOY)
e|----------------------------------------------|
B|----------------------------------------------|
G|----------------------------------------------|
D|----------------------------------------------|
A|--7--5----------------------------------------|
E|-------9-7-5-0--------------------------------|
    *  * * * * 


************************************
| h   hammer-on
| *   Palm mute
| ~   ring out
| bu  Bend up

************************************
            

comments powered by Disqus
↑ Back to top | Dananananaykroyd Tabs for Cameo. Lyrics for acoustic guitar and electric guitar. Tablatures and chords are parodies/interpretations of the original songs. You may use it for private study, scholarship, research or language learning purposes only