» » »

Dananananaykroyd, 1993 Tabs (ver.1)

Artists:  A B C D E F G H I J K L M N O P Q R S T U V W X Y Z # 

1993 Tabs (ver.1)

Dananananaykroyd Tabs
Rating:
5/5 (1 vote)
1993 lessons Tabs too difficult? Try these video lessons and learn fast
                Sissy Hits
Dananananaykoyd


notice the different tuning, (high to low) E A G D A E

I've only tabbed what he plays in the video but i've put it in order, the outro part is missing

Intro
E|-------------|
A|-9-9-9~------|
G|-7-7-7~------|
D|-x-x-x-------|
A|-7-7-7~------|
E|----------0~-|

E|------------|-------------|-------------|-----------|
A|-9----------|-9-9---------|-------------|-----------|
G|-7--9-9-----|-7-7-9-9-----|-7-7-7-7-7-7-|-7---------|
D|-x--x-x-9-9-|-x-x-x-x-9-9-|-------------|-----------|
A|-7--7-7-7-7-|-7-7-7-7-7-7-|-9-9-9-9-9-9-|-9---------|
E|------------|-------------|-7-7-7-5-5-7-|-7-9-8-7-0-|



E|------------|-------------|-------------|------------|
A|-9----------|-9-9---------|-------------|------------|
G|-7--9-9-----|-7-7-9-9-----|-7-7-7-------|------------|
D|-x--x-x-9-9-|-x-x-x-x-9-9-|-------------|-------2----|
A|-7--7-7-7-7-|-7-7-7-7-7-7-|-9-9-9-------|-------2-/--|
E|------------|-------------|-7-7-7-9-8-7-|-3-4-5-0----| 



Verse 
E|------------|-------------|-------------|-----------|
A|-9----------|-9-9---------|-------------|-----------|
G|-7--9-9-----|-7-7-9-9-----|-7-7-7-7-7-7-|-7---------|
D|-x--x-x-9-9-|-x-x-x-x-9-9-|-------------|-----------|
A|-7--7-7-7-7-|-7-7-7-7-7-7-|-9-9-9-9-9-9-|-9---------|
E|------------|-------------|-7-7-7-5-5-7-|-7-9-8-7-0-|



E|------------|-------------|-------------|------------|
A|-9----------|-9-9---------|-------------|------------|
G|-7--9-9-----|-7-7-9-9-----|-7-7-7-------|------------|
D|-x--x-x-9-9-|-x-x-x-x-9-9-|-------------|-------2----|
A|-7--7-7-7-7-|-7-7-7-7-7-7-|-9-9-9-------|-------2----|
E|------------|-------------|-7-7-7-9-8-7-|-3-4-5-0----| 



E|-------------|-------------|-----------|
A|-------------|-------------|-----------|
G|-16-16-14-13-|-7-7-7-7-7-7-|-7---------|
D|--x--x--x--x-|-------------|-----------|
A|-14-14-12-11-|-9-9-9-9-9-9-|-9---------|
E|-------------|-7-7-7-5-5-7-|-7-9-8-7-0-|


E|------------|-------------|-------------|-------|
A|-9----------|-9-9---------|-------------|-------|
G|-7--9-9-----|-7-7-9-9-----|-7-7-7-------|-------|
D|-x--x-x-9-9-|-x-x-x-x-9-9-|-------------|-------|
A|-7--7-7-7-7-|-7-7-7-7-7-7-|-9-9-9-------|-------|
E|------------|-------------|-7-7-7-9-8-7-|-3-4-5-| 


Chorus
E|---------|---------|-------------|
A|---------|---------|-------------|
G|-----9-9-|-----9-8-|-------------|
D|-2-2-7-6-|-2-2-7-6-|-4---4---4---| 1993!
A|-2-2-x-x-|-2-2-x-x-|-x-7-x-7-x-7-|
E|-0-0-9-7-|-0-0-9-7-|-5---5---5---| etc.

E|---------|---------|-------------     -------------|
A|---------|---------|-------------     -------------|
G|-----9-9-|-----9-8-|-------------     -------------|
D|-2-2-7-6-|-2-2-7-6-|-4---4---4---     -2---2---2---|
A|-2-2-x-x-|-2-2-x-x-|-x-7-x-7-x-7-     -x-5-x-5-x-5-|
E|-0-0-9-7-|-0-0-9-7-|-5---5---5---etc. -3---3---3---|etc.


E|---------------------|--------
A|---------------------|--------
G|---------------------|--------
D|-6~--6-6-----6-6-----|--------
A|-x-9-----9-9-----9-9-|-9-7-7~- pick scr*p 
E|-7-7-----------------|-0-0-0~-


Repeat
            

comments powered by Disqus
↑ Back to top | Dananananaykroyd Tabs for 1993. Lyrics for acoustic guitar and electric guitar. Tablatures and chords are parodies/interpretations of the original songs. You may use it for private study, scholarship, research or language learning purposes only