» » »

Damone, What We Came Here For Tabs (ver.1)

Artists:  A B C D E F G H I J K L M N O P Q R S T U V W X Y Z # 

What We Came Here For Tabs (ver.1)

Damone Tabs
Rating:
4/5 (1 vote)
Hard to play? Try these video lessons and learn fast.
                No one else is doing Damone songs so I'll start.

Damone - What We Came Here For

all hail Mike Woods (even though i didn't tab his part yet)

Gtr I (D A D G B E) - 'Noelle'


 4/4
  Gtr I 
    INTRO    (Harmonics)
|------------|------------|------------|------------|------------|--------|
|------------|------------|------------|------------|------------|--------|
|-<5>--------|-<7>--------|------------|-<5>--------|-<7>--------|--------|
|-<5>--------|-<7>--------|-<7>--------|-<5>--------|-<7>--------|-<7>----|
|------------|------------|-<7>--------|------------|------------|-<7>----|
|------------|------------|------------|------------|------------|--------|

 
Verse
 Everything I thought...
 Changed the day I...
 All my rides and fake...
 I thought we were so...                                       4x
|----------|----------|----------------|----------------|--------||
|----------|----------|----------------|----------------|-------o||
|----------|----------|----------------|----------------|--------||
|----------|----------|-2--0--2--0--5--|-5--0--0--7--5--|-0------||
|----------|----------|-2--0--2--0--5--|-5--0--0--7--5--|-0-----o||
|----------|----------|-2--0--2--0--5--|-5--0--0--7--5--|-0------||

Pre Chorus
  I'd get right back....
|-------------|-------------|-------------|
|-------------|-------------|-------------|
|-------------|-------------|-------------|
|-3--3--3--3--|-5--5--5--5--|-7--7--7--7--|
|-3--3--3--3--|-5--5--5--5--|-7--7--7--7--|
|-3--3--3--3--|-5--5--5--5--|-7--7--7--7--|



|----------------|-------------|------|
|----------------|-------------|------|
|----------------|-------------|------|
|-7--7--7-5-3-3--|-3--3--3--3--|-5----|
|-7--7--7-5-3-3--|-3--3--3--3--|-5----|
|-7--7--7-5-3-3--|-3--3--3--3--|-5----|

Chorus
  I'm not someone you ignore....
  Pick my self up off the floor...
|----------------|----------------|----|
|----------------|----------------|----|
|----------------|----------------|----|
|-2--0--2--0--5--|-5--0--0--7--5--|-0--|
|-2--0--2--0--5--|-5--0--0--7--5--|-0--|
|-2--0--2--0--5--|-5--0--0--7--5--|-0--|


                                          4x
|----------------|----------------|-------||
|----------------|----------------|------o||
|----------------|----------------|-------||
|-2--0--2--0--5--|-5--0--0--7--5--|-0-----||
|-2--0--2--0--5--|-5--0--0--7--5--|-0----o||
|-2--0--2--0--5--|-5--0--0--7--5--|-0-----||


  Nothing less and nothing ....
|-------------|-------------|-------------|-------------|
|-------------|-------------|-------------|-------------|
|-5--5--5--5--|-5--5--5--5--|-7--7--7--7--|-7--7--7\----|
|-5--5--5--5--|-5--5--5--5--|-7--7--7--7--|-7--7--7\----|
|-3--3--3--3--|-3--3--3--3--|-5--5--5--5--|-6--6--6\----|
|-------------|-------------|-------------|-------------|


  
|-------------------------------|----|-------------------------------|----||
|-------------------------------|----|-------------------------------|---o||
|-------------------------------|----|-------------------------------|----||
|-2--0--2--0--5--5--0--0--7--5--|-0--|-2--0--2--0--5--5--0--0--7--5--|-0--||
|-2--0--2--0--5--5--0--0--7--5--|-0--|-2--0--2--0--5--5--0--0--7--5--|-0-o||
|-2--0--2--0--5--5--0--0--7--5--|-0--|-2--0--2--0--5--5--0--0--7--5--|-0--||


 Every time I look at....
 I forget what I'm supposed...
|----------|----------|----------------------|-----------------||
|----------|----------|----------------------|----------------o||
|----------|----------|----------------------|-----------------||
|----------|----------|-2--0--2--0--5--5--0--|-0--7--5--0------||
|----------|----------|-2--0--2--0--5--5--0--|-0--7--5--0-----o||
|----------|----------|-2--0--2--0--5--5--0--|-0--7--5--0------||


  I cold turn around and walk away...
|-------------|-------------|-------------|
|-------------|-------------|-------------|
|-------------|-------------|-------------|
|-3--3--3--3--|-5--5--5--5--|-7--7--7--7--|
|-3--3--3--3--|-5--5--5--5--|-7--7--7--7--|
|-3--3--3--3--|-5--5--5--5--|-7--7--7--7--|


  
|----------------|-------------|------|
|----------------|-------------|------|
|----------------|-------------|------|
|-7--7--7-5-3-3--|-3--3--3--3--|-5----|
|-7--7--7-5-3-3--|-3--3--3--3--|-5----|
|-7--7--7-5-3-3--|-3--3--3--3--|-5----|


  I'm not someone you ignore....
|----------------------|-------------------------|-------------------------||
|----------------------|-------------------------|------------------------o||
|----------------------|-------------------------|-------------------------||
|-2--0--2--0--5--5--0--|-0--7--5--0--2--0--2--0--|-5--5--0--0--7--5--0-----||
|-2--0--2--0--5--5--0--|-0--7--5--0--2--0--2--0--|-5--5--0--0--7--5--0----o||
|-2--0--2--0--5--5--0--|-0--7--5--0--2--0--2--0--|-5--5--0--0--7--5--0-----||


  Nothing less and nothing.....
|-------------|-------------|-------------|--------------||
|-------------|-------------|-------------|-------------o||
|-5--5--5--5--|-5--5--5--5--|-7--7--7--7--|-7--7--7\-----||
|-5--5--5--5--|-5--5--5--5--|-7--7--7--7--|-7--7--7\-----||
|-3--3--3--3--|-3--3--3--3--|-5--5--5--5--|-6--6--6\----o||
|-------------|-------------|-------------|--------------||


                            (noel laugh)                            One step in and one step...
|----------------|----------------|---------------|---------------|-------------|-------------|
|----------------|----------------|---------------|---------------|-------------|-------------|
|----------------|----------------|---------------|---------------|-------------|-------------|
|-2--0--2--0--5--|-5--0--0--7--5--|-0-------------|-2--4--5--9-10-|-10-10-10-10-|-10-10-10-10-|
|-2--0--2--0--5--|-5--0--0--7--5--|-0-------------|-2--4--5--9-10-|-10-10-10-10-|-10-10-10-10-|
|-2--0--2--0--5--|-5--0--0--7--5--|-0-------------|-2--4--5--9-10-|-10-10-10-10-|-10-10-10-10-|


 
|-------------|-------------|---------|---------|---------|---------|---------|-------|
|-------------|-------------|---------|---------|---------|---------|---------|-------|
|-------------|-------------|---------|---------|---------|---------|---------|-------|
|-10-10-10-10-|-10-10-10-10-|-5-5-5-5-|-5-5-5-5-|-4-4-4-4-|-3-3-3-3-|-0-0-0-0-|-10----|
|-10-10-10-10-|-10-10-10-10-|-5-5-5-5-|-5-5-5-5-|-4-4-4-4-|-3-3-3-3-|-0-0-0-0-|-10----|
|-10-10-10-10-|-10-10-10-10-|-5-5-5-5-|-5-5-5-5-|-4-4-4-4-|-3-3-3-3-|-0-0-0-0-|-10----|


  
|-----------------|------------------|--------||
|-----------------|------------------|-------o||
|-9-9h11h12-------|------------------|--------||
|-----------10-10h|=12h13-7-7h9h10-7p|=5p4----||
|-----------------|------------------|-----7-o||
|-----------------|------------------|--------||


  
|---------|---------|-------------|-------------|
|---------|---------|-------------|-------------|
|---------|---------|-------------|-------------|
|-2-2-2-2-|-2-2-2-2-|-10-10-10-10-|-10-10-10-10-|
|-2-2-2-2-|-2-2-2-2-|-10-10-10-10-|-10-10-10-10-|
|-2-2-2-2-|-2-2-2-2-|-10-10-10-10-|-10-10-10-10-|


  
|-------------|-------------|-------------||
|-------------|-------------|------------o||
|-------------|-------------|-9-----------||
|-12-12-12-12-|-12-12-12-12-|-9-10-7-5-4--||
|-12-12-12-12-|-12-12-12-12-|-7-10-7-5-4-o||
|-12-12-12-12-|-12-12-12-12-|---10-7-5-4--||


                                                                        
  I get right back on the ....
|---------|---------|---------|---------|---------|---------|---------|------|
|---------|---------|---------|---------|---------|---------|---------|------|
|-5-5-5-5-|-7-7-7-7-|-9-9-9-9-|-9-9-7-7-|-5-5-5-5-|---------|-7-7-7-7-|-7----|
|-5-5-5-5-|-7-7-7-7-|-9-9-9-9-|-9-9-7-7-|-5-5-5-5-|-5-5-5-5-|-7-7-7-7-|-7----|
|-3-3-3-3-|-5-5-5-5-|-7-7-7-7-|-7-7-5-5-|-3-3-3-3-|-5-5-5-5-|-5-5-5-5-|-6----|
|---------|---------|---------|---------|---------|-5-5-5-5-|---------|------|


 Chant
I'm not someone you ignore....
|----------|----------|----------|----------|----------------------|
|----------|----------|----------|----------|----------------------|
|----------|----------|----------|----------|----------------------|
|----------|----------|----------|----------|-2--0--2--0--5--5--0--|
|----------|----------|----------|----------|-2--0--2--0--5--5--0--|
|----------|----------|----------|----------|-2--0--2--0--5--5--0--|


  
|-------------------------|------------------------|
|-------------------------|------------------------|
|-------------------------|------------------------|
|-0--7--5--0--2--0--2--0--|-5--5--0--0--7--5--0----|
|-0--7--5--0--2--0--2--0--|-5--5--0--0--7--5--0----|
|-0--7--5--0--2--0--2--0--|-5--5--0--0--7--5--0----|


  
|----------------------|-------------------------|---------------------|
|----------------------|-------------------------|---------------------|
|----------------------|-------------------------|---------------------|
|-2--0--2--0--5--5--0--|-0--7--5--0--2--0--2--0--|-5--5--0--0--7--5--0-|
|-2--0--2--0--5--5--0--|-0--7--5--0--2--0--2--0--|-5--5--0--0--7--5--0-|
|-2--0--2--0--5--5--0--|-0--7--5--0--2--0--2--0--|-5--5--0--0--7--5--0-|


  Nothing less and nothing...,
|-------------|-------------|-------------|--------------||
|-------------|-------------|-------------|-------------o||
|-5--5--5--5--|-5--5--5--5--|-7--7--7--7--|-7--7--7\-----||
|-5--5--5--5--|-5--5--5--5--|-7--7--7--7--|-7--7--7\-----||
|-3--3--3--3--|-3--3--3--3--|-5--5--5--5--|-6--6--6\----o||
|-------------|-------------|-------------|--------------||


  
|-------------|-------------|-------------|-------------|---|
|-------------|-------------|-------------|-------------|---|
|-5--5--5--5--|-5--5--5--5--|-7--7--7--7--|-7--7--7\----|---|
|-5--5--5--5--|-5--5--5--5--|-7--7--7--7--|-7--7--7\----|-2-|
|-3--3--3--3--|-3--3--3--3--|-5--5--5--5--|-6--6--6\----|-2-|
|-------------|-------------|-------------|-------------|-2-|


  
|----|-----|------|
|----|-----|------|
|----|-----|------|
|----|-----|-2----|
|----|-----|-2----|
|----|-----|-2----|
            

comments powered by Disqus
↑ Back to top | Damone Tabs for What We Came Here For. Lyrics for acoustic guitar and electric guitar. Tablatures and chords are parodies/interpretations of the original songs. You may use it for private study, scholarship, research or language learning purposes only