» » »

Damone, Carwash Romance Tabs (ver.1)

Artists:  A B C D E F G H I J K L M N O P Q R S T U V W X Y Z # 

Carwash Romance Tabs (ver.1)

Damone Tabs
Rating:
5/5 (1 vote)
Hard to play? Try these video lessons and learn fast.
                Verse:
At the carwash I'll be waiting...
e|------------------------------------------------|
B|------------------------------------------------|
G|--7~--------7~------------------77--77--77--77--|
D|--7~--7--5--7~--7--5--4~--5--7--77--77--77--77--|
A|--5~--7--5--5~--7--5--4~--5--7--55--55--55--55--|
E|------5--3------5--3--2~--3--5------------------|

At the carwash I will be dreaming...
e|-------------------------------------------------------------|
B|-------------------------------------------------------------|
G|--7~--------7~------------------77--77--77--99--11-11-11-11--|
D|--7~--7--5--7~--7--5--4~--5--7--77--77--77--xx---x--x--x--x--|
A|--5~--7--5--5~--7--5--4~--5--7--55--55--55--77---9--9--9--9--|
E|------5--3------5--3--2~--3--5-------------------------------|

Chorus:
e|------------------|
B|------------------|
G|--44----------77--|
D|--44--22--77--77--|  Four Times
A|--22--22--77--55--|
E|------00--55------|

Then
e|-----------------------|
B|-----------------------|
G|--44--444--444--44444--|
D|--44--444--444--44444--|
A|--22--022--022--02222--|
E|-----------------------|

Bridge
Woah-oh...
e|----------------------------|
B|----------------------------|
G|--7777--7777----------------|
D|--7777--7777--5555-4-55-77--| Three Times
A|--5555--0000--5555-4-55-77--|
E|--------------3333-2-33-55--|

e|-----------------------|
B|-----------------------|
G|--7777--7777-----------|
D|--7777--7777--5-4-5-7--|
A|--5555--0000--5-4-5-7--|
E|--------------3-2-3-5--|

Verse
Chorus
Bridge
            

comments powered by Disqus
↑ Back to top | Damone Tabs for Carwash Romance. Lyrics for acoustic guitar and electric guitar. Tablatures and chords are parodies/interpretations of the original songs. You may use it for private study, scholarship, research or language learning purposes only