» » »

Damn Yankees, Come Again Tabs (ver.2)

Artists:  A B C D E F G H I J K L M N O P Q R S T U V W X Y Z # 

Come Again Tabs (ver.2)

Damn Yankees Tabs
 Rating:
4/5 (4 votes)
Come Again lessons Tabs too difficult? Try these video lessons and learn fast
1
                (Intro)
COME AGAIN
Damn Yankees

Normal Tuning
Intro
     2 1 3(4)1   2 3   2    (4)  1   3 2  (4)      2 2 3 4     4   3  
e|-----------------------0---------------------------------0---------------|
B|-----1---3p1---------------3---1-------0-3-0-----------3-----3-----------|
G|-------2-----------0-------------------------0-------2-----------2-------|
D|---2-----------------2-------------------------0-------------------------|
A|-0-----------0-2-3-------------------2-----------2-----------------------|
E|-----------------------------------3---------------2---------------------|

   1    4 3   4 3   3 2  (1 4 1)      2 1 3(4)1 3 2  
e|----------0---------------------------------------0-------------0--------|
B|------3-----3---------0-1-3-1-0-------1---3p1-----1--------------1-------|
G|--------2-----2-----------------0-------2-----2---2---------------2------|
D|----------------0-------------------2-----------2-2----------------2-----|
A|---0----------------2-------------0---------------0-----------------0----|
E|-1----------------3------------------------------------------------------|

I added the finger placement for you guys.
Sounds pretty much like it! Love this song!

Enjoy!!!
            
Submit corrections

comments powered by Disqus
↑ Back to top | Damn Yankees Tabs for Come Again. Lyrics for acoustic guitar and electric guitar. 1 Tablatures and chords are parodies/interpretations of the original songs. You may use it for private study, scholarship, research or language learning purposes only