» » »

Damned, Wait For The Blackout Bass tabs (ver.1)

Artists:  A B C D E F G H I J K L M N O P Q R S T U V W X Y Z # 

Wait For The Blackout Bass tabs (ver.1)

Damned Tabs
Rating:
3/5 (2 votes)
Wait For The Blackout lessons Tabs too difficult? Try these video lessons and learn fast
                
D Major/B Minor

G|----------------------------------------------------------------------|
D|---7--------------7---------------------------------------------------|
A|------7--------------7------------------------------------------------|
E|---------5--------------5---------------------------------------------|

0:12                                                                  2X
G|----------4-467-----------------4-------------------------------------|
D|--4-457---------55-44-55-44-4-7---7-4-7-------------------------------|
A|----------------------------------------------------------------------|
E|----------------------------------------------------------------------|

0:23 Don't you ask me to come outside...
G|----------------------------------------------------------------------|
D|--55555--44--55555--44--55555--44--55555--44--55555--44--55555--44----|
A|----------------------------------------------------------------------|
E|----------------------------------------------------------------------|

0:35 Wait for the blackout...                                         2X
G|----------4-467-----------------4-------------------------------------|
D|--4-457---------55-44-55-44-4-7---7-4-7-------------------------------|
A|----------------------------------------------------------------------|
E|----------------------------------------------------------------------|

0:47 Well, welcome to my basement flat...
G|----------------------------------------------------------------------|
D|--55555--44--55555--44--55555--44--55555--44--55555--44--55555--44----|
A|----------------------------------------------------------------------|
E|----------------------------------------------------------------------|

1:00 Wait for the blackout...                                         2X
G|----------4-467-----------------4-------------------------------------|
D|--4-457---------55-44-55-44-4-7---7-4-7-------------------------------|
A|----------------------------------------------------------------------|
E|----------------------------------------------------------------------|

1:12 First Guitar solo
G|------764--------------------------764--------------------------------|
D|----------457-------4h5p4h5p4----------457-------4h5p4h5p4------------|
A|--555-----------555------------555-----------555----------------------|
E|----------------------------------------------------------------------|

1:35 Wait for the blackout...                                         2X
G|----------4-467-----------------4-------------------------------------|
D|--4-457---------55-44-55-44-4-7---7-4-7-------------------------------|
A|----------------------------------------------------------------------|
E|----------------------------------------------------------------------|

1:47 Come lay with me upon the earth...
G|----------------------------------------------------------------------|
D|--55555--44--55555--44--55555--44--55555--44--55555--44--55555--44----|
A|----------------------------------------------------------------------|
E|----------------------------------------------------------------------|

2:00 Wait for the blackout...                                         2X
G|----------4-467-----------------4-------------------------------------|
D|--4-457---------55-44-55-44-4-7---7-4-7-------------------------------|
A|----------------------------------------------------------------------|
E|----------------------------------------------------------------------|

2:12 Second Guitar solo
G|------764--------------------------764--------------------------------|
D|----------457-------4h5p4h5p4----------457-------4h5p4h5p4------------|
A|--555-----------555------------555-----------555----------------------|
E|----------------------------------------------------------------------|

2:24 In darkness there is no sin...
G|----------------------------------------------------------------------|
D|----------------------------------------------------------------------|
A|--5-------5-------5-------5-------5-------5-------5-------------------|
E|------5-------5-------5-------5-------5-------5-----------------------|

                                     ...the darkness holds a power
G|----------------------------------------------------------------------|
D|----------------------------------------------------------------------|
A|---5-------5-------5------55555-----55555-----55555-----55555---------|
E|-------5-------5-----------------5---------5---------5----------------|

2:48 Bells ringing
G|----------------------------------------------------------------------|
D|----------------------------------------------------------------------|
A|---55-44-55--55-44-55--55-44-55---------------------------------------|
E|----------------------------------------------------------------------|

3:00 There is no vision here...
G|----------------------------------------------------------------------|
D|---------5-5-5---------5-5-5------------------------------------------|
A|--5-5-5---------5-5-5-------------------------------------------------|
E|----------------------------------------------------------------------|

3:12 Ending Jam
G|--------44-66-77-66--------44-66-77-66--------------------------------|
D|-----45-----------------45--------------------------------------------|
A|--55-----------------55-----------------------------------------------|
E|----------------------------------------------------------------------|


G|---------------------------------------44-66-77-66-44-----------------|
D|------------------------------44-55-77----------------77-55-44--------|
A|---------------------------55----------------------------------77-55--|
E|----------------------------------------------------------------------|

3:43 Fade out
G|----------------------------------------------------------------------|
D|----------------------------------------------------------------------|
A|---5-5-5-5-5-5-5-5-5-5-5-5-5-5-5-5-5----------------------------------|
E|----------------------------------------------------------------------|
            

comments powered by Disqus
↑ Back to top | Damned Bass for Wait For The Blackout. Lyrics for acoustic guitar and electric guitar. Tablatures and chords are parodies/interpretations of the original songs. You may use it for private study, scholarship, research or language learning purposes only