» » »

Thrill Kill Bass tabs (ver.1)

Artists:  A B C D E F G H I J K L M N O P Q R S T U V W X Y Z # 

Thrill Kill Bass tabs (ver.1)

Damned
Rating:
0/5 (0 votes)

Hard to play? Try these video lessons and learn fast.
                This is going to be sort of bad because I haven't got the chorus yet so it isn't on her, but the rest sounds pretty good.

Standard tuning

Intro
G|--------------------------------------|
D|--------------------------------------|
A|------5-666666-3-555555-6-444-1-33-1--|
E|333333------------------------------3-| 5x

Verse
G|----------------------------------|
D|----------------------------------|
A|-------666666-555555-4444-1-33-1--|
E|333333--------------------------3-|  3x

(insert chorus part here)

Bridge
G|-----------------------|
D|-----------------------|
A|-----------------------|
E|3----------1-3---------| 3x

Verse 3x

Chorus

Break
G|-------------------------------------|
D|-------------------------------------|
A|-----------------------------1-33-1--|
E|55-3-5-55-3-5-55-3-5-6-5-3-1-------3-|

Verse 5x

Bridge 2x

Intro until end


That sounds about the right order, and I'll do another one with the chorus in it when i figure the last parts out.
            
Hard to play? Try these video lessons and learn fast. | Correct




comments powered by Disqus
↑ Back to top | Tablatures and chords are parodies/interpretations of the original songs. You may use it for private study, scholarship, research or language learning purposes only