» » »

Damned, The Shadow Of Love Bass tabs (ver.1)

Artists:  A B C D E F G H I J K L M N O P Q R S T U V W X Y Z # 

The Shadow Of Love Bass tabs (ver.1)

Damned Tabs
 Rating:
4/5 (4 votes)
The Shadow Of Love lessons Tabs too difficult? Try these video lessons and learn fast
1
                
0:52
G|----------------------------------------------------------------------|
D|--77------77-----101097---------77------77-----101097-----------------|
A|-----710-----710--------101087-----710-----710--------101087----------|
E|----------------------------------------------------------------------|

1:19
G|--77---------9--------------------------------------------------------|
D|-----710-710---710-710------------------------------------------------|
A|----------------------------------------------------------------------|
E|----------------------------------------------------------------------|

1:28
G|----------------------------------------------------------------------|
D|--77------77-----101097---------77------77-----101097-----------------|
A|-----710-----710--------101087-----710-----710--------101087----------|
E|----------------------------------------------------------------------|

1:53  See the lights, lights, lights...
G|--77---------9--------------------------------------------------------|
D|-----710-710---710-710------------------------------------------------|
A|----------------------------------------------------------------------|
E|----------------------------------------------------------------------|

2:07
G|----------------------------------------------------------------------|
D|--77------77-----101097---------77------77-----101097-----------------|
A|-----710-----710--------101087-----710-----710--------101087----------|
E|----------------------------------------------------------------------|

2:24  Every night, every day...
G|----------------------------------------------------------------------|
D|----------------------------------------------------------------------|
A|----------------------------------------------------------------------|
E|---5-5-6-6-8-8-6-5---5-5-6-6-8-8-6-5----------------------------------|

2:42  I pray...I needed to pray...
G|----------------------------------------------------------------------|
D|--77------77-----101097---------77------77-----101097-----------------|
A|-----710-----710--------101087-----710-----710--------101087----------|
E|----------------------------------------------------------------------|

3:00   Keyboards and wolves (no bass)

3:43
G|----------------------------------------------------------------------|
D|--77------77-----101097---------77------77-----101097-----------------|
A|-----710-----710--------101087-----710-----710--------101087----------|
E|----------------------------------------------------------------------|

4:00   See the glow...
G|--77---------9--------------------------------------------------------|
D|-----710-710---710-710------------------------------------------------|
A|----------------------------------------------------------------------|
E|----------------------------------------------------------------------|


4:14
G|----------------------------------------------------------------------|
D|--77------77-----101097---------77------77-----101097-----------------|
A|-----710-----710--------101087-----710-----710--------101087----------|
E|----------------------------------------------------------------------|

5:53  Bass Fades out at 6:01
G|----------------------------------------------------------------------|
D|--7------7-79109-7-----77-66-55-4-3-2-1-0-----------------------------|
A|----7-10-----------10-------------------------------------------------|
E|----------------------------------------------------------------------|
            
Submit corrections

comments powered by Disqus
↑ Back to top | Damned Bass for The Shadow Of Love. Lyrics for acoustic guitar and electric guitar. 1 Tablatures and chords are parodies/interpretations of the original songs. You may use it for private study, scholarship, research or language learning purposes only