» » »

Damned, Neat Neat Neat Chords (ver.1)

Artists:  A B C D E F G H I J K L M N O P Q R S T U V W X Y Z # 

Neat Neat Neat Chords (ver.1)

Damned Tabs
Rating:
5/5 (1 vote)
Hard to play? Try these video lessons and learn fast.
                Please rate and add corrections if needed.
The verse is basically F# and A, you can figure it out if you just listen to the song.


Verse: F# and A

F#                        A
be a man, kinda mystery man,

be a doll,be a baby doll,

it can't be found not any way,

it can't be found no way at all

a distant man can't sympathise,

he can't uphold his distant laws,

due to form on that today,

i got a feeling then i hear that call,i said



Chorus:

D               A
Neat neat neat, she can't afford no cannon, 
D               A
neat neat neat, she can't afford no gun at all, 
D               A
neat neat neat, she can't afford no cannon,
D               A
neat neat neat, she ain't got no name to call


Verse 2:

F#                           A
no crime if there aint no law,

no cops left to mess you around,

no more dreams of mystery chords,

no more sight to bring you down,

i got a crazy, got a thought in my mind,

my mind's on when she falls asleep,

feelin' fine in her restless time,

then these words upon me creep,i said

(repeat chorus)

(solo bit)

| ---5-5-5----5-5-5----5-5-5-----5-5-5-5-5-5-5-8-8-8-8 |
| ---5-5-5----5-5-5----5-5-5-7b--5-5-5-5-5-5-5-8-8-8-8 |
| 7b-------7b-------7b-------------------------------- |
| ---------------------------------------------------- |
| ---------------------------------------------------- |
| ---------------------------------------------------- |

| 8-8-8-----8-8-8-----8-8-8-------------8-8-8---------8-8-8-----8-8-8 |
| 8-8-8-----8-8-8-----8-8-8-------------8-8-8---------8-8-8-----8-8-8 |
| ------10b-------10b-------10p9p7--10b-------10b-10b-------10b------ |
| ------------------------------------------------------------------- |
| ------------------------------------------------------------------- |
| ------------------------------------------------------------------- |

| 10-9-7--------------8-8-8--8-5-5-5-5 |
| -------9-7----------8-8-8--8-5-5-5-5 |
| -----------8-7--10b----------------- |
| ------------------------------------ |
| ------------------------------------ |
| ------------------------------------ |

(repeat 1st verse)

(repeat chorus twice)
            

comments powered by Disqus
↑ Back to top | Damned Chords for Neat Neat Neat. Lyrics for acoustic guitar and electric guitar. Tablatures and chords are parodies/interpretations of the original songs. You may use it for private study, scholarship, research or language learning purposes only