» » »

Damned, Ignite Tabs (ver.1)

Artists:  A B C D E F G H I J K L M N O P Q R S T U V W X Y Z # 

Ignite Tabs (ver.1)

Damned Tabs
 Rating:
4/5 (4 votes)
Ignite lessons Tabs too difficult? Try these video lessons and learn fast
                Tune up in EADGBe 
Effects: Distortion(overdrive) and Wah Wah
Timing: No deffinate timing
Chord type: All major chords no power chords(5 chords) except maybe on the 
palm mute bit below.

intro main riff

Bb(A#)	C	x2 
			}play in owah oowu...palm mute in verses
G	G#(Ab)	x2 

on "light the fuse i must ignite...." play 	A	Bb 	C	<---repeat /then--->	A	Bb	 	
then something like;
f#
----------------------------------------------
---------------------2------------------------
----------------------------3-----------------
------------4-------------------4------------
----------------------------------------------
-------------------------------------------0--

Solos all revolve around C minor pentatonic scale.
---------------------------------------------8--11--
---------------------------------------8--11--------
------------------------------8--10-----------------
--------------------8--10---------------------------
-----------8--10------------------------------------
--8--11---------------------------------------------
Just muck around on the solos as long as you stick to a pattern of this.Go mad with it!
            
Submit corrections

comments powered by Disqus
↑ Back to top | Damned Tabs for Ignite. Lyrics for acoustic guitar and electric guitar. Tablatures and chords are parodies/interpretations of the original songs. You may use it for private study, scholarship, research or language learning purposes only