>
 >
Eloise

Eloise Bass Tabs

Damned - Eloise chords, tabs, tablatures, lyrics

Guitar lessons | Add/correct | Request | Top 50 tabs Artists:  A B C D E F G H I J K L M N O P Q R S T U V W X Y Z 0-9

Eloise Bass Tabs – Damned

CD, Sheet music, Poster

Do you like Eloise? Share with your friends now
Bass Tabs
Eloise
This version released by The Damned in 1986 reaching number 3
In UK charts.  Original bassist Bryn Merrick. Tab by bass50611
Great cover version of Barry Ryans original 1968 release.

Intro:        .                            .
G|-------4-----------------------------------|
D|---------6--------2------------------------|
A|----------6--------4-2-4-4-4-4-4-4-4-4-432-|
E|-7----------4------------------------------|

Verse:
Every night Im there   Im always there   she knows Im there   and heaven
G|----------------------------------------------------------------------|
D|---------NO Bass-----------------------------NO Bass------------------|
A|----------------------------------------------------------------------|
E|----------------------------------------------------------------------|
  Knows    I hope she goes
G|---------------------------------------------------------------------|
D|---------------------------------------------------------------------|
A|---------------------------------9/11-9----9/11-9----5/7-5---------4-|
E|-----4------------------4-4-----7-------6-7-------6-4-----7-4-44-4---|

G|---------------------------------------------------------------------|
D|-6-4------------6-4--------------------------------------------------|
A|----6-4-------4----6-4-----4-4----4-4----4-4----4-4----4-4----4-4----|
E|-------4-44-4---------4-4-----6-4----6-4----6-4----6-4----6-4----6-4-|

PLAY QUAVERS ON THIS BIT
G|--------------------------------------------------------------------------|
D|--------------------------------------------------------------------------|
A|--------------------------------------------------------------------------|
E|66666666-4444444444444444/11-11-11-11-11-11-11-11-11-11-11-11-11-11-11-11-|

G|-----------------------------------------------------------------|
D|-6-6-6-6---------6-6-6-6---------6-6-6-6---------6-6-6-6---------|
A|---------4-4-4-4---------6-6-6-6---------4-4-4-4---------6-6-6-6-|
E|-----------------------------------------------------------------|
                                            .
G|--------------------------------------------|
D|--------------------------------------------|
A|-22222222-22222222---66666666-66666666------|
E|------------------------------------------7-|

Repeat Verse:

End Of 2nd Verse:                                                   .
G|--------------------------------------------------------------------|
D|--------------------------------------------------------------------|
A|-22222222-22222222-66666666-66666666---------2-2-2-2--4-4-4-4-----8-|
E|-------------------------------------4-4-4-4------------------------|

Bridge:
           .      .      .           .                        .
G|--------------------------------------------------------------|
D|------------------------------------------12-10---------------|
A|----8\---5-------------5------5/---8-----------12-10----------|
E|----------------3------------------------------------10-----3-|

Play first note hold and slide up        Short Drum Fill
G|--------------------------------------|---------------|
D|--------------------------------------|---------------|
A|--------5---/17-----2---/14-----------|---------------|
E|--------------------------------------|---------------|

G|--------------------------------------------------------------------|
D|-9-9-9-9--------9-9-9-9---------6-6-6-6-------6-6-6-6---------------|
A|--------11-9-----------11-9------------8-6-----------8-6----4-4-4-4-|
E|------------11-------------11-------------8-------------8-----------|

G|---------------------------------------------------------------|
D|-6-6-6-6----------6-6------------------------------------------|
A|---------4-4-4-4-----------9/11-9----9/11-9----5/7-5---------4-|
E|--------------------------7-------6-7-------6-4-----7-4-44-4---|

G|---------------------------------------------------------------------|
D|-6-4------------6-4--------------------------------------------------|
A|----6-4-------4----6-4-----4-4----4-4----4-4----4-4----4-4----4-4----|
E|-------4-44-4---------4-4-----6-4----6-4----6-4----6-4----6-4----6-4-|

PLAY QUAVERS ON THIS BIT
G|--------------------------------------------------------------------------|
D|--------------------------------------------------------------------------|
A|--------------------------------------------------------------------------|
E|66666666-4444444444444444/11-11-11-11-11-11-11-11-11-11-11-11-11-11-11-11-|

G|-----------------------------------------------------------------|
D|-6-6-6-6---------6-6-6-6---------6-6-6-6---------6-6-6-6---------|
A|---------4-4-4-4---------6-6-6-6---------4-4-4-4---------6-6-6-6-|
E|-----------------------------------------------------------------|
                                                         .      .     .
G|----------------------------------------------------------------------|
D|----------------------------------------------------------------------|
A|-2222222222222222-6666666666666666-2222222222222222-----------------2-|
E|-------------------------------------------------------4------2-------|

Outro:
G|-8888888888888888--------------------------------------------------------|
D|------------------6-6-6-6---6-6-6-6---4-4-4-4---4-4-4-4------------------|
A|-----------------------6---------6---------4---------4--2-2-2-2--2-2-2-2-|
E|-------------------------------------------------------------2--------2--|

G|---------88888888--------------------------------------------------------|
D|------------------6-6-6-6---6-6-6-6---4-4-4-4--4-4-4-4-------------------|
A|-6-6-6-6---------------6---------6---------4--------4--2-2-2-2---2-2-2-2-|
E|------6-----------------------------------------------------2---------2--|
                       CODA
G|-88888888-88888888-||------------------------------------------------|
D|-------------------||-6-6-6-6---6-6-6-6---4-4-4-4--4-4-4-4---9-9-9-9-|
A|-------------------||------6---------6---------4--------4---------9--|
E|-------------------||------------------------------------------------|

G|--------------------------------|
D|-9-9-9-9------------------------|
A|------9-------6-6-6-6---6-6-6-6-|
E|-------------------6---------6--|

Repeat From Coda to Fade/End





Comments


Popular Damned tabs & chords
Thrill Kill Bass Tabs
Love Song Chords
New Rose Chords
Plan 9 Channel 7 Chords
Thanks For The Night Chords
Fan Club Tabs
Generals Tabs
Plan 9 Channel 7 Ukulele
Smash It Up Ukulele
Wait For The Blackout Ukulele


Song lyrics



↑ Back to top | Tablatures and chords are parodies/interpretations of the original songs. You may use it for private study, scholarship, research or language learning purposes only
© 2014 AZChords.com Contact us | Privacy policy | DMCA | Add/correct tabs | Request tabs | Top 50 tabs