» » »

Damned, Dozen Girls Tabs (ver.1)

Artists:  A B C D E F G H I J K L M N O P Q R S T U V W X Y Z # 

Dozen Girls Tabs (ver.1)

Damned Tabs
Rating:
0/5 (0 votes)
Dozen Girls lessons Tabs too difficult? Try these video lessons and learn fast
                			     Dozen Girls - The Damned

Tuning: standard

  Intro
e|---------------------------------------------------------------|
B|---------------------------------------------------------------|
G|--------------------------------------------------7-5-7-5------|
D|-----7-5-7-5-7----10-8--10-8--------5-3-5-3-5-----7-7-7-7------|
A|---7--------------10-10-10-10-----5-------------5--------------|
E|-5--------------8---------------3------------------------------|

   (E)pm...          (play this over palm-muted E chord)
e|------------------|----------------------------|
B|------------------|-------9--10---10--9--------|
G|-99999999999999---|-------9--9----9---9--------|
D|-99999999999999---|-------9--9----9---9--------|
A|-77777777777777---|----------------------------|
E|------------------|----------------------------|

  Verse                              pm.....  pm.....  pm....
e|---------------------------------------------------------------------|
B|---------------------------------------------------------------------|
G|-77777777777777----------------7-----------9-------9-----------------|
D|-77777777777777-7777777777777--7-7--99999999999999999999999----------|
A|-55555555555555-7777777777777--5-7--77777777777777777777777----------|
E|----------------5555555555555----5-----------------------------------|


  Chorus                           pm.....  pm...
e|--------------------------------------------------------|
B|--------------------------------------------------------|
G|-----------------------------------------9-----9--------|
D|-9999999999999--44444444-7777777--9999999999999999------|
A|-9999999999999--44444444-7777777--7777777777777777------|
E|-7777777777777--22222222-5555555------------------------|


Solo: it's actually just a number of licks, followed by the melody. I've put the licks 
the order they appear. Just listen out for them.

  (1)                       (2)
e|------------------------|-------------------------|
B|-12--15----15-----------|-------------------------|
G|-14b---14b---14b-r(14)--|-------9-12s7-7s9~-------|
D|------------------------|--9h11-------------------|
A|------------------------|-------------------------|
E|------------------------|-------------------------|
  (3)
e|--------------------------------------------------|
B|-----12--15----15--12-----------15b---------------|
G|-----14b---14b-----14b-r(14)p12-------------------|
D|--------------------------------------------------|
A|--------------------------------------------------|
E|--------------------------------------------------|

  (this is played on a seperate guitar, just before each lick)
e|-------------|
B|-------------|
G|---7-7h9~----|
D|-------------|
A|-------------|
E|-------------|


Solo part 2
e|--------------------------------------------------|
B|------9-10-9---------------------------9~---------|
G|-------------11~-11b-r(11)-9~--7-6----------------|
D|-9h11------------------------------9-9------------|
A|--------------------------------------------------|
E|--------------------------------------------------|


 After last chorus, when they start singing about underpants, the bass plays this. I 
this is played at certain points on the guitar aswell.
e|--------------------------------|
B|--------------------------------|
G|--------------------------------|
D|--------------------------------|
A|-----------0--0-2-4~------------|
E|-0--0-2-4~----------------------|


                  (1)           (2)
e|---------------|------------|----------------------|
B|---------------|------------|--12--12--------------|
G|---------------|------------|--14b-14b--12~--------|
D|-14~--12h14p12-|---14~------|--------------14~-----|
A|---------------|------------|----------------------|
E|---------------|------------|----------------------|

  Play the lick above 2 times with ending number (1), then play the lick again with ending number (2).

  So, there you go. If there's any questions or suggestions, then don't hesitate to drop 
a line. The licks may not be perfect, they are sort of hidden behind the distortion so 
tricky to work out.

| /  slide up
| \  slide down
| h  hammer-on
| p  pull-off
| ~  vibrato
| r  release bend
| +  harmonic
| x  Mute note
            

comments powered by Disqus
↑ Back to top | Damned Tabs for Dozen Girls. Lyrics for acoustic guitar and electric guitar. Tablatures and chords are parodies/interpretations of the original songs. You may use it for private study, scholarship, research or language learning purposes only