» » »

Democracy Tabs (ver.2)

Artists:  A B C D E F G H I J K L M N O P Q R S T U V W X Y Z # 

Democracy Tabs (ver.2)

Damned
Rating:
0/5 (0 votes)

Hard to play? Try these video lessons and learn fast.
                There was an awful tab of this on here. I was quite offended by it's incompetence. So 
a good'n. :)

Intro...

------------0-------------------------------|
------------0-------------------------------|
------------3-------------------------------|
--4-4-4-4-4-4-let ring----------4-5-4   X 4-|
--4-4-4-4-4-4-----------4-5-4-5-------------|
--2-2-2-2-2-2---------5---------------------|

"Did you notice that just recently"
---------------7-7-7-7-7-7-7-9-9-9-9-9-9-9-9-9-9-9-9-9-9-------|
---------------5-5-5-5-5-5-5-7-7-7-7-7-7-7-6-6-6-6-6-6-6   X 1-|
--4-4-4-4-4-4-4------------------------------------------------|
--2-2-2-2-2-2-2------------------------------------------------|
   |pm|  |pm|    |pm|  |pm|   |pm|   |pm|   |pm|  |pm|


------------0---------------|
------------0---------------|
------------3---------------|      This part is played after the intro section
--4-4-4-4-4-4---4---2-------|      is played again. You'll be able to hear what
--4-4-4-4-4-4---4---2-------|      I mean. :)
--2-2-2-2-2-2---2---0-------|


"And if you're looking for the answers"
------------------------|
------------------------|
-7----2-----------------|
-7----2----2------4-5-4-|
-5----0----2----5-------|
-----------0------------|

"Democracy, Democracy (not on you life)"
---------0---------0---------0---------0-|
---------0---------0---------0---------0-|
---------3---------6-4-4-4-4-4---------6-|
-4-4-4-4-4-7-7-7-7-7-4-4-4-4-4-7-7-7-7-7-|
-4-4-4-4-4-7-7-7-7-7-2-2-2-2-2-7-7-7-7-7-|
-2-2-2-2-2-5-5-5-5-5-----------5-5-5-5-5-|

Solo, not quite got it, i'll post it if I ever do.
            
Hard to play? Try these video lessons and learn fast. | Correct




comments powered by Disqus
↑ Back to top | Tablatures and chords are parodies/interpretations of the original songs. You may use it for private study, scholarship, research or language learning purposes only