» » »

Damien Rice, Volcano Tabs (ver.3)

Artists:  A B C D E F G H I J K L M N O P Q R S T U V W X Y Z # 

Volcano Tabs (ver.3)

Damien Rice Tabs
 Rating:
4/5 (4 votes)
Volcano lessons Tabs too difficult? Try these video lessons and learn fast
                Intro: (sounds better if you slide between the chord changes)
		  Am					  Am					    Am
e  -------------------------|--------------------------------|-----------------------------
B  ----------5---5----------|---------------5-----5----------|-------------5-----5---------
G  ----------5--------5-----|---------------5----------5-----|-------------5------------5--
D  ----------7--------------|---------------7----------------|-------------7---------------
A  7---7--------------------|---7---7------------------------|---7---7---------------------
E  -------------------------|--------------------------------|-----------------------------

	   Am			G			F				F
e  -------------------------|------------------------|---------------------
B  -----5---------------3---|-------------1---1------|-----------1---1-----
G  -----5---------------3---|-------------1------1---|-----------1------1--
D  -----7---------------4---|-------------2----------|-----------2---------
A  7---------------5--------|---3---3----------------|---3---3-------------
E  -------------------------|------------------------|---------------------

			F			   F				G
e  |--------------------------|----------------------------------|
B  |-------------1---1--------|--------1-------------------3-----|
G  |-------------1------1-----|--------1-------------------3-----|   Repeat from start
D  |-------------2------------|--------2-------------------4-----|
A  |---3---3------------------|----3-------------------5---------|
E  |--------------------------|----------------------------------|

Verse: Same as intro (end of verse pick as above changing from G – F)

Chorus: Strum Am to F(using the fingering above and sliding down sounds good)

Interlude(strum chords):Em-C-Am-F(bar chords sounds good here)
            
Submit corrections

comments powered by Disqus
↑ Back to top | Damien Rice Tabs for Volcano. Lyrics for acoustic guitar and electric guitar. Tablatures and chords are parodies/interpretations of the original songs. You may use it for private study, scholarship, research or language learning purposes only