» » »

I Remember Tabs (ver.2)

Artists:  A B C D E F G H I J K L M N O P Q R S T U V W X Y Z # 

I Remember Tabs (ver.2)

Damien Rice
Rating:
0/5 (0 votes)

Hard to play? Try these video lessons and learn fast.
                (Intro)
Tuning: standard with capo on second fret

Verse                                                    x2
e|---------------------3-------------------3---------------------------------|
B|---3---3---3--------3----------3--------3---------3---3---3---3------------|
G|--0---2---0--------0-------0--2--------0------0--2---0---2---0-------------|
D|------------------------0h2----------------0h2-----------------------------|
A|-------------0-2-3---------------0-2-3-------------------------------------|
E|-0---2---3-------------------2------------------2---3---2---0--------------|

Chorus                                                   x2
e|----3---------3---------3--------3-----------------------------------------|
B|---3---------3---------3--------3---------3---3---3------------------------|
G|--0---------0------0--0--------0------0--0---2---0-------------------------|
D|----------------0h2----------------0h2-------------------------------------|
A|------0-2-3---------------0-2-3-----------------3--------------------------|
E|-3-------------------3------------------3---2------------------------------|



| /  slide up
| \  slide down
| h  hammer-on
| p  pull-off
| ~  vibrato
| +  harmonic
| x  Mute note
            
Hard to play? Try these video lessons and learn fast. | Correct




comments powered by Disqus
↑ Back to top | Tablatures and chords are parodies/interpretations of the original songs. You may use it for private study, scholarship, research or language learning purposes only