>
 >
I Remember 2

I Remember 2 Guitar Tabs

Damien Rice - I Remember 2 chords, tabs, tablatures, lyrics

Guitar lessons | Add/correct | Request | Top 50 tabs Artists:  A B C D E F G H I J K L M N O P Q R S T U V W X Y Z 0-9

I Remember 2 Guitar Tabs – Damien Rice

CD, Sheet music, Poster

Do you like I Remember 2? Share with your friends now
ChordsChords v2Chords v3Chords v4Chords v5TabsTabs v2Tabs v3Tabs v4
Band: Damien Rice


h = hammer
p = pull-off

Ok I tried watching a few videos of Damien live and it appears he plays it a little different live.
This is what I hear on the album... note for note.  Timing might not be exactly the same on your CD..
with any ideas you have for anything after 2:22 or so


capo 2nd fret

::Verse 1 part 1::
---------------------------------|
------0----------------3---------|
-------------2-----------0-------|
---0-------0--------0------------|
---------------------------------|
-0-------2-------3---------------|
       \"I remember it well...\" 0:00 - 0:03


---------------------------------|
-----------3---------------3-----|
-------------0-------0-------0---|
---------2-------0h2-----0-------|
-0-2-2h3-------------------------|
-----------------------3---------|
\"The First time... that I saw\"  0:04 - 0:07.9

----------------------------------|
-----------3---------------3------|
-------------0-------0--------2---|
---------2-------0h2-----0------0-|
-0-2-2h3--------------------------|
-----------------------2----------|
\"Your head around the door\" 0:08 - 0:11.9


---------------------------------|
------3-----------3--------------|
--------2---2---0---0------0-----|
----0-----0------------0h2-------|
--3-----------3------------------|
--------2------------------------|
\"Cause mine stopped working\"  0:12 - 0:15.5


::Verse 1 part 2::
----------------------------------------|
------------3------3------3-------------|
----------------------------0-----------|
---------0------0------0----------------|
----------------------------------------|
------0------2------3-------------------|
\"I remember it well...\" 0:15.5 - 0:19.5


---------------------------------|
-----------3---------------3-----|
-------------0-------0-------0---|
---------2-------0h2-----0-------|
-0-2-2h3-------------------------|
-----------------------3---------|
\"There was wet in your hair\" 0:19.6 - 0:23.6


-------------------------------------|
-----------3---------------3---------|
-------------0-------0-------2-0h2-0-|
---------2-------0h2-----0-----------|
-0-2-2h3-----------------------------|
-----------------------2-------------|
\"I was stood in the stairs\" 0:23.7 - 0:27.3


----------------------------------|
------3------------3--------------|
--------2---2----0---0--------0---|
----0-----0--------------0h2------|
--3------------3------------------|
--------2-------------------------|
\"Cause time stopped moving\" 0:27.4 - 0:31.9


:::Chorus 1:::
---------------------------|
--------3------------3-----|
------0----------------0---|
----0--------------2-------|
-----------0-2-2h3---------|
--3------------------------|
\"Want you here tonight... want you here\" 0:32 - 0:35.8


----------------------------------|
---------------3------------3-----|
-----0-------0----------------0---|
-0h2-------0--------------2-------|
------------------0-2-2h3---------|
--------3-------------------------|
\"Cause I can\'t believe... what I\'ve found\" 0:35.9 - 0:39.5

-----------------------------------|
---------------3-------------3-----| < fix
-----0-2-----0-----------------0---|
-0h2-------0---------------2-------|
-------------------0-2-2h3---------|
-------2-3-------------------------|
\"Waaaaant. you here tonight... want you here\" 0:39.6 - 0:43.9

----------------------------------------|
---------------3------------3-------3---|
-----0-------0------------------------0-|
-0h2-------0--------------2----0h2------|
------------------0-2-2h3---------------|
--------3-------------------------------|
\"Nothin\' is... taking me down... down\" 0:43.9 - 0:50.5


--------------------------------|
-----3-------------3------------|
------------2--------0----------|
---0------0------0--------------|
--------------------------------|
-0------2------3----------------|
\"Down...\" 0:50.5 - 0:53.8


-------------------------------|
-----------3-------------------|
-------------0---------0-2-0---|
---------2-----0h2---0---------|
-0-2-2h3-----------3-----------|
-------------------------2-----|
\"...\" 0:53.8 - 0:58.5

::Verse 2 part 1::
--------------------------------|
-----3-------------3------------|
------------2--------0----------|
---0------0------0--------------|
--------------------------------|
-0------2------3----------------|
\"I remember it well...\" 0:58.9 - 1:01.9


---------------------------------|
-----------3---------------3-----|
-------------0-------0-------0---|
---------2-------0h2-----0-------|
-0-2-2h3-------------------------|
-----------------------3---------|
\"Taxied out... of a storm\" 1:01.9 - 1:05.5


------------------------------------|
-----------3-----------------3------|
-------------0-------0-----2---2----|
---------2-------0h2-----0-------0--|
-0-2-2h3----------------------------|
-----------------------2------------|
\"To watch you... perform\" 1:05.9 - 1:09


--------------------------------|
--------------------3-----------|
-------0------2---0---0-------0-|
-----0-----0--------------0h2---|
---3------------3---------------|
---------2----------------------|
\"And My Ships were... sailin\'\" 1:09.5 - 1:13.7


::Verse 2 part 2::
--------------------------------|
-----3-------------3------------|
------------2--------0----------|
---0------0------0--------------|
--------------------------------|
-0------2------3----------------|
\"I remember it well...\" 1:14 - 1:16.9


---------------------------------|
-----------3---------------3-----|
-------------0-------0-------0---|
---------2-------0h2-----0-------|
-0-2-2h3-------------------------|
-----------------------3---------|
\"I once stood in your... line\"  1:17 - 1:20.9


-----------------------------------|
-----------3-----------------3-----|
-------------0-------0-2---2---2---|
---------2-------0h2-----0-------0-|
-0-2-2h3---------------------------|
-----------------------------------|
\"And your mouth... your mouth\" 1:21 - 1:25.4

------------------------------------------------|
---------3----3-----3-----3-------------3-------|
-----0-2----0-----2---------0-----0-------2---2-|
---0--------------------2-----0h2-----0-----0---|
----------0-----2-----3-------------3-----------|
-3----------------------------------------------|
\"your mind...\" 1:25.5 - 1:33.5


:::Chorus 2:::
--------------------------|
-------3------------3-----|
-----0----------------0---|
---0--------------2-------|
----------0-2-2h3---------|
-3------------------------|
\"Want you here tonight... want you here\" 1:33.5 - 1:37.4


----------------------------------|
---------------3------------3-----|
-----0-------0----------------0---|
-0h2-------0--------------2-------|
------------------0-2-2h3---------|
--------3-------------------------|
\"Cause I can\'t believe... what I\'ve found\" 1:37.5 - 1:41.4

-----------------------------------|
---------------3-------------3-----|
-----0-2-----0-----------------0---|
-0h2-------0---------------2-------|
-------------------0-2-2h3---------|
---------3-------------------------|
\"Wannnnnt. you here tonight... want you here\" 1:41.5 - 1:45.9

---------------------------------------------|
---------------3------------3--------------3-|
-----0-------0----------------0----------0---|
-0h2-------0--------------2---------0h2------|
------------------0-2-2h3--------------------|
--------3------------------------------------|
\"Nothin\' is... taking me down... down\" 1:45.9 - 1:51.5


--------------------------------|
-------------------3------------|
-----0------2--------0----------|
---0------0------0--------------|
--------------------------------|
-0------2------3----------------|
\"Down...\" 1:51.6 - 1:55


------------------------|
-----------3------------|
-------------0-----0----|
---------2-----0h2---0--|
-0-2-2h3----------------|
------------------------|
\"...except you my love\" 1:55 - 2:00

--------------------------------|
-----3------3------3------------|
----------2----------0----------|
---0-------------0--------------|
--------------------------------|
-0------2------3----------------|
\"...\" 2:00.4 - 2:03.9


------------------------|
-----------3------------|
-------------0-----0----|
---------2-----0h2---0--|
-0-2-2h3----------------|
------------------------|
\"......except you my love\" 2:04 - 2:09

--------------------------|
-----3------3------3------|
---0------2----------0----|
-----------------0--------|
--------------------------|
-0------2------3----------|
\"...\" 2:09 - 2:12


-------------------------------|
-----------3-----------3-------|
-------------0-----0-----0-----|
---------2-----0h2---0-----0---|
-0-2-2h3---------------------2-|
-------------------------------|
\"...\"  2:12 - 2:18.4


I did all of that part as best as I could... the rest is sloppy...

Damien\'s Part:  (I think this is wrong... but somewhere close?)

----------------------------------------|
-0h1---1-0---1---1-0---1---0h1-0h1-1-1--|
-2-----------------------------2--------|
-2---2---------2---------2-----2--------|
-0---------0---------0------------------|
----------------------------------------|

------------------------------------------|
-1-----1---1-1-----1---1-0h1---1---1------|
-0---0-------0h2-2-------2---2------------|
-0h3-----3---3-------3---3-------3--------|
-3-----------------------3----------------|
------------------------------------------|

-1-----1---1-1-----1---1-1/3--3---3-3-3---3---|
-0-------0---0h1-1-------1/3----3---3-3---3---|
-0h2-2-------2-------2-------2------2-2h4-2---|
-3-----------3--------------------------------|
----------------------------------------------|
----------------------------------------------|

---------------------------------------------------|
--0h1-1--0h1-1--0h1-1------------------------------|
--0h2-2--0h2-2--0h2-2-0h1-1------------------------|
--0h2-2--0h2-2--0h2-2-0h2-2------------------------|
0-0---0--0---0--0---0-0h2-2------------------------|
----------------------0---0------------------------|


Then some more...  This is all so far





Comments


Popular Damien Rice tabs & chords
Cold Water 1 Chords
Cross-eyed Bear Chords
Is That It My Friend Chords
What The Night Is For 1 Chords
Accidental Babies 4 Tabs
Eskimo 1 Tabs
Woman Like A Man Tabs
Grey Room Ukulele
Illusions Ukulele
Volcano Ukulele


Song lyrics



↑ Back to top | Tablatures and chords are parodies/interpretations of the original songs. You may use it for private study, scholarship, research or language learning purposes only
© 2014 AZChords.com Contact us | Privacy policy | DMCA | Add/correct tabs | Request tabs | Top 50 tabs