» » »

Groovin Tabs (ver.1)

Artists:  A B C D E F G H I J K L M N O P Q R S T U V W X Y Z # 

Groovin Tabs (ver.1)

Damien Rice
Rating:
0/5 (0 votes)

Tabs too difficult? Try these video lessons and learn fast.
                (Intro)
Groovin' - Damien Rice
 
in Cork, Ireland in 2002.
 
Groovin - Damien Rice

Ok, normal tuning and no capo. This song's basically all
based around the C chord.
 
 E |------------------|-------------0x-|
 B |----1---1---1---1-|---1---0-----0x-|
 G |----0---0---0---0-|---0h2-2/4---0x-|
 D |--------------2---|2h3-------------| x 2
 A |0h3---2---0-------|----------------|
 E |------------------|----------------|
 

   |------------------|----------------|
   |----1---1---1---1-|--1---1---1---1-|
   |----0---0---0---0-|--0---0---0---0-|
   |------------------|3---2---1---0---|
   |0h3---2---0-------|----------------|
   |------------------|----------------|
 

   |----------------|----------------|
   |--1---1---1---1-|----x-----------|
   |--0---0---0---0-|----x---0-------|
   |------------2---|3---------------|
   |3---2---0-------|----------------|
   |----------------|----------------|
 
Repeat similar to above where it fits! You'll get the feel
for it quick enough.

Until..

*...that you are the one that's got me feeling this way*
 
Fill, (C, Fx4, G):
 
   |011113------|
   |111113------|
   |022223------|
   |233335------|
   |333335------|
   |-11113------|
 
Then carry on with the first bit(s).
 
            
Tabs too difficult? Try these video lessons and learn fast.




comments powered by Disqus
↑ Back to top | Tablatures and chords are parodies/interpretations of the original songs. You may use it for private study, scholarship, research or language learning purposes only