» » »

Damien Rice, Cannonball Tabs (ver.2)

Artists:  A B C D E F G H I J K L M N O P Q R S T U V W X Y Z # 

Cannonball Tabs (ver.2)

Damien Rice Tabs
 Rating:
4/5 (16 votes)
Cannonball lessons Tabs too difficult? Try these video lessons and learn fast
                damien rice - cannonball
standard tuning (e,a,d,g,b,e)

capo 6th fret

intro/verses

guitar 1 - finger-picking

e----------------------------------------
b-----------------------------3----------
g----------------------------------------
d---2--5-5-5-5-4-2-0h2-0-----------------
a---2--2-2-2-2-2-3-3---3--0h2------0-2---
e---0---------------------3------3------- x2

e--------------------------------------------------------------------------
b------------------------3-------------------3-3-3-------------------------
g----4-4-4-4-4h5-4-2-0---0-2p0-2p0-2p0-2/4-0-0-0-0----------0--------------
d-2----------------------0-------------------0-0-0------0h2----0-0-0-0-2---
a-2--2-2-2-2-2---2-2-2---2-------------------2-2-2--2h3--------2-2-0-0-2---
e-0--------------------3-3-------------------3-3-3-------------3-3-2-2-0---

guitar 2 - strumming

e----------------------------------------------------
b-------------------------------3-3-3--3-3-3-3---3---
g-------------------------------0-0-0--2-2-2-0h2-0---
d---2-2-2-5-5-5-5-4-2-0h2-0-----0-0-0--0-0-0-0---0---
a---2-2-2-2-2-2-2-2-3-3---3-0h2-2-2-2--0-0-0-0---0---
e---0-0-0-------------------3---3-3-3--2-2-2-2---2--- x2

e----------------------------------------------------------------------
b-----------------------------3-3-3--3-3-3-3---------3-3-3-3-3-3-3-3---
g---------4-4-4-4-4h5-4-2-0---0-0-0--2-2-2-2p0-2/4-0-0-0-0-0-0-0-0-0---
d---2-2-2-x-x-x-x-x---x-x-x---0-0-0--0-0-0-0---------0-0-0-0-0-0-0-0---
a---2-2-2-2-2-2-2-2---2-2-2---2-2-2--0-0-0-0---------2-2-2-2-2-2-2-2---
e---0-0-0-------------------3-3-3-3--2-2-2-2---------3-3-3-3-3-3-3-3---

e-------------------------------------
b--------------3-3-3--3-3-3-3-3-------
g-----------0--0-0-0--2-2-2-2-2-------
d-------0h2----0-0-0--0-0-0-0-0---2---
a---2h3--------2-2-2--0-0-0-0-0---2---
e--------------3-3-3--2-2-2-2-2---0---

chorus

guitar 1 - finger-picking

e---0------0------0------0-------
b-----3------3------3------3-----
g-------2------2------2------2---
d--------------------------------
a--------------------------------
e-------------------------------- x4

guitar 2 - strumming

e------------------------------------------------
b---3--3-3-3--3--3-3-3--3-3-3-3-3-3-3-3--3---3---
g---0--0-0-0--0--0-0-0--2-2-2-2-2-2-2-2--0h2-0---
d---0--0-0-0--2--2-2-2--0-0-0-0-0-0-0-0--0---0---
a---2--2-2-2--3--3-3-3--0-0-0-0-0-0-0-0--0---0---
e---3--3-3-3------------2-2-2-2-2-2-2-2--2---2--- x2

e---------------------------------------------------------------------
b---3--3-3-3--3--3-3-3--3-3-3-3---------------------3-3-3-3-3-3-3-3---
g---0--0-0-0--0--0-0-0--2-2-2-2--2p0-2p0-2p0-2/4-0--0-0-0-0-0-0-0-0---
d---0--0-0-0--2--2-2-2--0-0-0-0---------------------0-0-0-0-0-0-0-0---
a---2--2-2-2--3--3-3-3--0-0-0-0---------------------2-2-2-2-2-2-2-2---
e---3--3-3-3------------2-2-2-2---------------------3-3-3-3-3-3-3-3---

e----------------------------------
b--------------3-3-3--3-3-3--3-3---
g-----------0--0-0-0--2-2-2--2-2---
d-------0h2----0-0-0--0-0-0--0-0---
a---2h3--------2-2-2--0-0-0--0-0---
e--------------3-3-3--2-2-2--2-2---

the intro to the second verse is the same as the other intro but at one point the finger
picking guitar plays something different

e----------------------------------------
b-----------------------------3----------
g----------------------------------------
d---2--5-5-5-5-4-2-0h2-0-----------------
a---2--2-2-2-2-2-3-3---3--0h2------0-2---
e---0---------------------3------3------- x2

e-----------------------------------------------------
b------------------------3----------------------------
g----4-4-4-4-4h5-4-2-0---0----2-0-2---0-----0-2-4-5---
d-2----------------------0----------4-----------------
a-2--2-2-2-2-2---2-2-2---2----------------------------
e-0--------------------3-3-3--------------------------

and there's a really small part thats played differently just before the second chorus

e----------------
b----------------
g---3------------
d------4--5--4---
a----------------
e----------------

there's one more bit for the outro, it's about 4:33 when the strumming guitar becomes
quiet, it plays this over and over again...

e-------------------------
b---3---3----3----3------
g-----2----2----2----2---
d-------------------------
a-------------------------
e-------------------------

then at about 4:52 everything gets really quiet and it plays this until the end...

e---------------
b---3-----------
g-----0-0-2-0---
d---------------
a---------------
e---------------

verse 1

there's still a little bit of your taste, in my mouth
there's still a little bit of you laced, with my doubt
it's still a little hard to say, what's goin' on

there's still a little bit of your ghost, your weakness
there's still a little bit of your face, I haven't kissed
you step a little closer each day 
that i can't say what's going on

chorus

stones taught me to fly
love, it taught me to lie
life, it taught me to die
so it's not hard to fall
when you float like a cannonball

verse 2

there's still a little bit of your song, in my ear
there's still a little bit of your words, I long to hear
you step a little closer to me
so close that I can't see what's going on

chorus

stones taught me to fly
love, it taught me to lie
life, it taught me to die
so it's not hard to fall
when you float like a cannon...

stones taught me to fly
love, it taught me to cry
so come on courage!
teach me to be shy
'cause it's not hard to fall
and I don't wanna scare her
it's not hard to fall
and I don't wanna lose
it's not hard to grow
when you know that you just don't know

/ - slide up
\ - slide down
h - hammer on
p - pull off
~ - vibrato
+ - harmonic
x - mute note
            
Submit corrections

comments powered by Disqus
↑ Back to top | Damien Rice Tabs for Cannonball. Lyrics for acoustic guitar and electric guitar. Tablatures and chords are parodies/interpretations of the original songs. You may use it for private study, scholarship, research or language learning purposes only