» » »

Accidental Babies Tabs (ver.2)

Artists:  A B C D E F G H I J K L M N O P Q R S T U V W X Y Z # 

Accidental Babies Tabs (ver.2)

Damien Rice
Rating:
5/5 (1 vote)
Tabs too difficult? Try these video lessons and learn fast.
                Accidental Babies	by Damien Rice

This is my first tab ever, standard tuning, listen to the song for the timing. It’s the
first verse and chorus, hopefully I’ll find some time to do the rest...  here goes:

   Intro:
e|-------0-1------3--5-|-----7---8--10-12-|---------------0-|----------------------|
B|-----3----------3----|---3--------------|-----1-3-----1---|-------0-1-------0----|
G|---2-------2---------|-0-----7-7--7-----|---0-------0-----|-----2---------0------|
D|-0-------------------|-----5------------|-----------------|---2---------0--------|
A|---------------------|------------------|-3-------2-------|-0--------------------|
E|---------------------|------------------|-----------------|-----------3----------|
							   Verse:
e|---------------------|------------------|-----------------|----------------------|
B|--1-----------0-1----|---------0--------|-----------------|----------3-----------|
G|--------0---2--------|-----0---0--------|-----------------|--------4-------------|
D|------2--------------|---0---0----------|-----------------|------5---------------|
A|----2----------------|------------------|----3------------|----5-----------------|
E|--1------------------|-3----------------|-1---------------|--3-------------------|
						      
Well I held you like a lover Happy hands and your elbow in the
e|---------------------|------------------|-----------------|----------------------|
B|-----1-3-----1-3-----|-------0----------|-----------------|-------0---1---3------|
G|---0-------0---------|-----2-------0-2--|--------2--------|-------0---0---0------|
D|---------------------|---2-------0------|-----3-----------|-----0---0---0--------|
A|-3-------2-----------|-0----------------|---3-------------|----------------------|
E|---------------------|---------3--------|-1------1--------|---3------------------|
  appropriate place				        
And we ignored our others happy plans    For that
look
e|---------------------|------------------|-----------------|----------------------|
B|-----1-3-----1-3-----|-------0----------|---------1-------|--------0---1---3-----|
G|---0-------0---------|-----2-------0-2--|---------2-------|--------0---0---0-----|
D|---------------------|---2-------0------|-----3---3---3---|------0---0---0-------|
A|-3-------2-----------|-0----------------|---3---3---3-----|----------------------|
E|---------------------|---------3--------|-1---------------|----3-----------------|
   upon your face					     
 Our bodies moved and hardened Hurting parts of your garden
e|---------------------|------------------|--------------------|-------------------|
B|-----1-3-----1-3-----|-------0----------|--------------------|-0-----------------|
G|---0-------0---------|-----2-------0-2--|----------0-2-------|-----0-------------|
D|---------------------|---2-------0------|--------4-----------|---0---------------|
A|-3-------2-----------|-0----------------|------3-------------|-------------------|
E|---------------------|---------3--------|----1---------------|-3-----------------|
With no room for a pardon    In a place where no one knows what we have done
Chorus:
e|-------0-1------3--5-|-----7---8--10-12-|---------------0-|-------------------|
B|-----3----------3----|---3--------------|-----1-3-----1---|-------0-1-------0-|
G|---2-------2---------|-0-----7-7--7-----|---0-------0-----|-----2---------0---|
D|-0-------------------|-----5------------|-----------------|---2---------0-----|
A|---------------------|------------------|-3-------2-------|-0-----------------|
E|---------------------|------------------|-----------------|-----------3-------|
Do you come			 Together ever with him				
And is he
e|-------0-1------3--5-|-----7---8--10-12-|---------------0-|-------------------|
B|-----3----------3----|---3--------------|-----1-3-----1---|-------0-1-------0-|
G|---2-------2---------|-0-----7-7--7-----|---0-------0-----|-----2---------0---|
D|-0-------------------|-----5------------|-----------------|---2---------0-----|
A|---------------------|------------------|-3-------2-------|-0-----------------|
E|---------------------|------------------|-----------------|-----------3-------|
dark enough 			 Enough to see your light
And do you brush your teeth before you kiss

Thats it So far, hope u enjoy...
            
Tabs too difficult? Try these video lessons and learn fast.


comments powered by Disqus
↑ Back to top | Tablatures and chords are parodies/interpretations of the original songs. You may use it for private study, scholarship, research or language learning purposes only