» » »

Like Titanic Tabs (ver.1)

Artists:  A B C D E F G H I J K L M N O P Q R S T U V W X Y Z # 

Like Titanic Tabs (ver.1)

Damien Jurado
Rating:
0/5 (0 votes)

Tabs too difficult? Try these video lessons and learn fast.
                Hey guys, this is my second tab. I noticed there's not too many Damien Jurado tabs 
up, and I'm out to fix that :3
You need to listen to the song if you plan to sing with it. Matching the rhythm with the 
exactly is kinda hard in this format.
Enjoy!


Tuning: Capo on 1

Intro/Verse
* Played completely in downstrokes

INTRO
                  [Start the downstrokes]
                   D x2            G x2            D x2            G x2
e|----------------------------------------------------------------------------------|
B|-3(b)--HOLD------3-3-3-3-3-3-3-3-0-0-0-0-0-0-0-0-3-3-3-3-3-3-3-3-0-0-0-0-0-0-0-0--|
G|-----------------2-2-2-2-2-2-2-2-0-0-0-0-0-0-0-0-2-2-2-2-2-2-2-2-0-0-0-0-0-0-0-0--|
D|-----------------0-0-0-0-0-0-0-0-0-0-0-0-0-0-0-0-0-0-0-0-0-0-0-0-0-0-0-0-0-0-0-0--|
A|-----------------0-0-0-0-0-0-0-0-2-2-2-2-2-2-2-2-0-0-0-0-0-0-0-0-2-2-2-2-2-2-2-2--|
E|----------------------------------------------------------------------------------|
   1 2 3 4 1 2 3 4 1 2 3 4 1 2 3 4 1 2 3 4 1 2 3 4 1 2 3 4 1 2 3 4 1 2 3 4 1 2 3 4

VERSE

   D x2            G x2            D x2            G x2            D x2
e|----------------------------------------------------------------------------------|
B|-3-3-3-3-3-3-3-3-0-0-0-0-0-0-0-0-3-3-3-3-3-3-3-3-0-0-0-0-0-0-0-0-3-3-3-3-3-3-3-3--|
G|-2-2-2-2-2-2-2-2-0-0-0-0-0-0-0-0-2-2-2-2-2-2-2-2-0-0-0-0-0-0-0-0-2-2-2-2-2-2-2-2--|
D|-0-0-0-0-0-0-0-0-0-0-0-0-0-0-0-0-0-0-0-0-0-0-0-0-0-0-0-0-0-0-0-0-0-0-0-0-0-0-0-0--|
A|-0-0-0-0-0-0-0-0-2-2-2-2-2-2-2-2-0-0-0-0-0-0-0-0-2-2-2-2-2-2-2-2-0-0-0-0-0-0-0-0--|
E|----------------------------------------------------------------------------------|
   1 2 3 4 1 2 3 4 1 2 3 4 1 2 3 4 1 2 3 4 1 2 3 4 1 2 3 4 1 2 3 4 1 2 3 4
      (There's a place where...)                        [continue at next tabby template thing :)]

   G x2            D x2              G x2
e|-----------------------------------------------------|
B|-0-0-0-0-0-0-0-0-3-3-3-3-3-3-3-3-3-0-0-0-0-0-0-0-H---|
G|-0-0-0-0-0-0-0-0-2-2-2-2-2-2-2-2-2-0-0-0-0-0-0-0-O---| Now straight to
D|-0-0-0-0-0-0-0-0-0-0-0-0-0-0-0-0-0-0-0-0-0-0-0-0-L---| pre-chorus
A|-2-2-2-2-2-2-2-2-0-0-0-0-0-0-0-0-0-2-2-2-2-2-2-2-D---|
E|-----------------------------------------------------|
   1 2 3 4 1 2 3 4 1 2 3 4 1 2 3 4 1 2 3 4 1 2 3 4 1 2 3

PRECHORUS
[full strumming of chords here]

D                      Em7
I have many questions, places I keep goin'
G                          Em7
I don't know the meaning of 'no trespassin'

D Em7 G Em7

FILL

  [Downstrokes]
   D x2            G x2            D x2            G x2
e|---------------------------------------------------------------------------------|
B|-3-3-3-3-3-3-3-3-0-0-0-0-0-0-0-0-3-3-3-3-3-3-3-3-0-0-0-0-0-0-0-0-----------------|
G|-2-2-2-2-2-2-2-2-0-0-0-0-0-0-0-0-2-2-2-2-2-2-2-2-0-0-0-0-0-0-0-0-----------------|
D|-0-0-0-0-0-0-0-0-0-0-0-0-0-0-0-0-0-0-0-0-0-0-0-0-0-0-0-0-0-0-0-0-----------------|
A|-0-0-0-0-0-0-0-0-2-2-2-2-2-2-2-2-0-0-0-0-0-0-0-0-2-2-2-2-2-2-2-2-----------------|
E|---------------------------------------------------------------------------------|
   1 2 3 4 1 2 3 4 1 2 3 4 1 2 3 4 1 2 3 4 1 2 3 4 1 2 3 4 1 2 3 4 1 2 3 4 1 2 3 4

VERSE

   D x2            G x2            D x2            G x2            D x2
e|----------------------------------------------------------------------------------|
B|-3-3-3-3-3-3-3-3-0-0-0-0-0-0-0-0-3-3-3-3-3-3-3-3-0-0-0-0-0-0-0-0-3-3-3-3-3-3-3-3--|
G|-2-2-2-2-2-2-2-2-0-0-0-0-0-0-0-0-2-2-2-2-2-2-2-2-0-0-0-0-0-0-0-0-2-2-2-2-2-2-2-2--|
D|-0-0-0-0-0-0-0-0-0-0-0-0-0-0-0-0-0-0-0-0-0-0-0-0-0-0-0-0-0-0-0-0-0-0-0-0-0-0-0-0--|
A|-0-0-0-0-0-0-0-0-2-2-2-2-2-2-2-2-0-0-0-0-0-0-0-0-2-2-2-2-2-2-2-2-0-0-0-0-0-0-0-0--|
E|----------------------------------------------------------------------------------|
   1 2 3 4 1 2 3 4 1 2 3 4 1 2 3 4 1 2 3 4 1 2 3 4 1 2 3 4 1 2 3 4 1 2 3 4
      (Me and Jeanie...)                                           [continue]

   G x2            D x2              G x2
e|-----------------------------------------------------|
B|-0-0-0-0-0-0-0-0-3-3-3-3-3-3-3-3-3-0-0-0-0-0-0-0-H---|
G|-0-0-0-0-0-0-0-0-2-2-2-2-2-2-2-2-2-0-0-0-0-0-0-0-O---| Straight to
D|-0-0-0-0-0-0-0-0-0-0-0-0-0-0-0-0-0-0-0-0-0-0-0-0-L---| chorus
A|-2-2-2-2-2-2-2-2-0-0-0-0-0-0-0-0-0-2-2-2-2-2-2-2-D---|
E|-----------------------------------------------------|
   1 2 3 4 1 2 3 4 1 2 3 4 1 2 3 4 1 2 3 4 1 2 3 4 1 2 3

CHORUS 1
[full strumming]

D                     Em7
I have many problems, fears I can't ignore
G                          Em7
I don't know the meaning of 'self destruction'
D                      Em7
I have many questions, places I keep goin'
G                        Em7
I don't know the meaning of 'no trespassin'

FILL

  [Downstrokes]
   D x2            G x2            D x2            G x2
e|---------------------------------------------------------------------------------|
B|-3-3-3-3-3-3-3-3-0-0-0-0-0-0-0-0-3-3-3-3-3-3-3-3-0-0-0-0-0-0-0-0-----------------|
G|-2-2-2-2-2-2-2-2-0-0-0-0-0-0-0-0-2-2-2-2-2-2-2-2-0-0-0-0-0-0-0-0-----------------|
D|-0-0-0-0-0-0-0-0-0-0-0-0-0-0-0-0-0-0-0-0-0-0-0-0-0-0-0-0-0-0-0-0-----------------|
A|-0-0-0-0-0-0-0-0-2-2-2-2-2-2-2-2-0-0-0-0-0-0-0-0-2-2-2-2-2-2-2-2-----------------|
E|---------------------------------------------------------------------------------|
   1 2 3 4 1 2 3 4 1 2 3 4 1 2 3 4 1 2 3 4 1 2 3 4 1 2 3 4 1 2 3 4 1 2 3 4 1 2 3 4

VERSE

   D x2            G x2            D x2            G x2            D x2
e|----------------------------------------------------------------------------------|
B|-3-3-3-3-3-3-3-3-0-0-0-0-0-0-0-0-3-3-3-3-3-3-3-3-0-0-0-0-0-0-0-0-3-3-3-3-3-3-3-3--|
G|-2-2-2-2-2-2-2-2-0-0-0-0-0-0-0-0-2-2-2-2-2-2-2-2-0-0-0-0-0-0-0-0-2-2-2-2-2-2-2-2--|
D|-0-0-0-0-0-0-0-0-0-0-0-0-0-0-0-0-0-0-0-0-0-0-0-0-0-0-0-0-0-0-0-0-0-0-0-0-0-0-0-0--|
A|-0-0-0-0-0-0-0-0-2-2-2-2-2-2-2-2-0-0-0-0-0-0-0-0-2-2-2-2-2-2-2-2-0-0-0-0-0-0-0-0--|
E|----------------------------------------------------------------------------------|
   1 2 3 4 1 2 3 4 1 2 3 4 1 2 3 4 1 2 3 4 1 2 3 4 1 2 3 4 1 2 3 4 1 2 3 4
      (Some say Jeanie...)                                        [continue]

   G x2            D x2              G x2
e|-----------------------------------------------------|
B|-0-0-0-0-0-0-0-0-3-3-3-3-3-3-3-3-3-0-0-0-0-0-0-0-H---|
G|-0-0-0-0-0-0-0-0-2-2-2-2-2-2-2-2-2-0-0-0-0-0-0-0-O---| Straight to
D|-0-0-0-0-0-0-0-0-0-0-0-0-0-0-0-0-0-0-0-0-0-0-0-0-L---| chorus
A|-2-2-2-2-2-2-2-2-0-0-0-0-0-0-0-0-0-2-2-2-2-2-2-2-D---|
E|-----------------------------------------------------|
   1 2 3 4 1 2 3 4 1 2 3 4 1 2 3 4 1 2 3 4 1 2 3 4 1 2 3


CHORUS 2
[full strumming]

D                      Em7
I have many questions, places I keep goin'
G                          Em7
I don't know the meaning of 'no trespassin'
D                     Em7
I have many problems, the fears I can't ignore
G                         Em7
I don't know the meaning of 'self destruction'


FILL

  [Downstrokes]
   D x2            G x2            D x2            G x2
e|---------------------------------------------------------------------------------|
B|-3-3-3-3-3-3-3-3-0-0-0-0-0-0-0-0-3-3-3-3-3-3-3-3-0-0-0-0-0-0-0-0-----------------|
G|-2-2-2-2-2-2-2-2-0-0-0-0-0-0-0-0-2-2-2-2-2-2-2-2-0-0-0-0-0-0-0-0-----------------|
D|-0-0-0-0-0-0-0-0-0-0-0-0-0-0-0-0-0-0-0-0-0-0-0-0-0-0-0-0-0-0-0-0-----------------|
A|-0-0-0-0-0-0-0-0-2-2-2-2-2-2-2-2-0-0-0-0-0-0-0-0-2-2-2-2-2-2-2-2-----------------|
E|---------------------------------------------------------------------------------|
   1 2 3 4 1 2 3 4 1 2 3 4 1 2 3 4 1 2 3 4 1 2 3 4 1 2 3 4 1 2 3 4 1 2 3 4 1 2 3 4


BRIDGE

   D x2            G x2            D x2            G x2            D x2
e|----------------------------------------------------------------------------------|
B|-3-3-3-3-3-3-3-3-0-0-0-0-0-0-0-0-3-3-3-3-3-3-3-3-0-0-0-0-0-0-0-0-3-3-3-3-3-3-3-3--|
G|-2-2-2-2-2-2-2-2-0-0-0-0-0-0-0-0-2-2-2-2-2-2-2-2-0-0-0-0-0-0-0-0-2-2-2-2-2-2-2-2--|
D|-0-0-0-0-0-0-0-0-0-0-0-0-0-0-0-0-0-0-0-0-0-0-0-0-0-0-0-0-0-0-0-0-0-0-0-0-0-0-0-0--|
A|-0-0-0-0-0-0-0-0-2-2-2-2-2-2-2-2-0-0-0-0-0-0-0-0-2-2-2-2-2-2-2-2-0-0-0-0-0-0-0-0--|
E|----------------------------------------------------------------------------------|
   1 2 3 4 1 2 3 4 1 2 3 4 1 2 3 4 1 2 3 4 1 2 3 4 1 2 3 4 1 2 3 4 1 2 3 4
                                       (Some say boredom...)

                                 G x2            D x2              G x2
e|-----------------------------------------------------|
B|-0-0-0-0-0-0-0-0-3-3-3-3-3-3-3-3-3-0-0-0-0-0-0-0-H---|
G|-0-0-0-0-0-0-0-0-2-2-2-2-2-2-2-2-2-0-0-0-0-0-0-0-O---| Now straight to
D|-0-0-0-0-0-0-0-0-0-0-0-0-0-0-0-0-0-0-0-0-0-0-0-0-L---| chorus
A|-2-2-2-2-2-2-2-2-0-0-0-0-0-0-0-0-0-2-2-2-2-2-2-2-D---|
E|-----------------------------------------------------|
   1 2 3 4 1 2 3 4 1 2 3 4 1 2 3 4 1 2 3 4 1 2 3 4 1 2 3

CHORUS 2
[full strumming]

D                      Em7
I have many questions, places I keep goin'
G                          Em7
I don't know the meaning of 'no trespassin'
D                     Em7
I have many problems, the fears I can't ignore
G                         Em7
I don't know the meaning of 'self destruction'

D Em7 G Em7
D Em7 G Em7
D Em7 G Em7

*END*
            
Tabs too difficult? Try these video lessons and learn fast.




comments powered by Disqus
↑ Back to top | Tablatures and chords are parodies/interpretations of the original songs. You may use it for private study, scholarship, research or language learning purposes only