» » »

Curbside Tabs (ver.1)

Artists:  A B C D E F G H I J K L M N O P Q R S T U V W X Y Z # 

Curbside Tabs (ver.1)

Damien Jurado
Rating:
4/5 (1 vote)

Hard to play? Try these video lessons and learn fast.
                Song is in the key of Bb
Capo 3, Chords relative.  Chords: Ebadd9, Bb6/D, Fsus2
With Capo: Cadd9, G6/B, Dsus2
Standard Tuning (E,B,G,D,A,E)
I am sure about everything, but the chorus, the way I do it sounds fine though.
I did this, because I love it, and it wasn't here, so I figured it out.
Intro (2x)

\        Cadd9             G6/B         Dsus2    G6/B
 |----------0------|---------0------|-----0h2----------|
 |--------3---3----|-------3---3----|---3-----3--------|
 |------0-------0--|-----0-------0--|-2---------3------|
 |----0-----------0|---0-----------0|-------------0---0|
 |--3--------------|-2--------------|---------------2--|
 |-----------------|----------------|------------------|
/

Verse 1:
\        Cadd9             G6/B         Dsus2    G6/B
 |----------0------|---------0------|-----0h2----------|
 |--------3---3----|-------3---3----|---3-----3--------|
 |------0-------0--|-----0-------0--|-2---------3------|
 |----0-----------0|---0-----------0|-------------0---0|
 |--3--------------|-2--------------|---------------2--|
 |-----------------|----------------|------------------|
/
           I would come out just to see you

\        Cadd9             G6/B         Dsus2    G6/B
 |----------0------|---------0------|-----0h2----------|
 |--------3---3----|-------3---3----|---3-----3--------|
 |------0-------0--|-----0-------0--|-2---------3------|
 |----0-----------0|---0-----------0|-------------0---0|
 |--3--------------|-2--------------|---------------2--|
 |-----------------|----------------|------------------|
/          Dancing freely by the sunset

\        Cadd9             G6/B         Dsus2    G6/B
 |----------0------|---------0------|-----0h2----------|
 |--------3---3----|-------3---3----|---3-----3--------|
 |------0-------0--|-----0-------0--|-2---------3------|
 |----0-----------0|---0-----------0|-------------0---0|
 |--3--------------|-2--------------|---------------2--|
 |-----------------|----------------|------------------|
/           Like the sun, you'd shine brightly

\        Cadd9             G6/B         Dsus2    G6/B
 |----------0------|---------0------|-----0h2----------|
 |--------3---3----|-------3---3----|---3-----3--------|
 |------0-------0--|-----0-------0--|-2---------3------|
 |----0-----------0|---0-----------0|-------------0---0|
 |--3--------------|-2--------------|---------------2--|
 |-----------------|----------------|------------------|
/

\        Cadd9             G6/B         Dsus2    G6/B
 |----------0------|---------0------|-----0h2----------|
 |--------3---3----|-------3---3----|---3-----3--------|
 |------0-------0--|-----0-------0--|-2---------3------|
 |----0-----------0|---0-----------0|-------------0---0|
 |--3--------------|-2--------------|---------------2--|
 |-----------------|----------------|------------------|
/           We'd spend hours by the curbside

\        Cadd9             G6/B         Dsus2    G6/B
 |----------0------|---------0------|-----0h2----------|
 |--------3---3----|-------3---3----|---3-----3--------|
 |------0-------0--|-----0-------0--|-2---------3------|
 |----0-----------0|---0-----------0|-------------0---0|
 |--3--------------|-2--------------|---------------2--|
 |-----------------|----------------|------------------|
/           Telling stories under streetlights

\        Cadd9             G6/B         Dsus2    G6/B
 |----------0------|---------0------|-----0h2----------|
 |--------3---3----|-------3---3----|---3-----3--------|
 |------0-------0--|-----0-------0--|-2---------3------|
 |----0-----------0|---0-----------0|-------------0---0|
 |--3--------------|-2--------------|---------------2--|
 |-----------------|----------------|------------------|
/           How your words would amaze me


Instrumental:

\        Cadd9             G6/B         Dsus2    G6/B
 |----------0------|---------0------|-----0h2----------|
 |--------3---3----|-------3---3----|---3-----3--------|
 |------0-------0--|-----0-------0--|-2---------3------|
 |----0-----------0|---0-----------0|-------------0---0|
 |--3--------------|-2--------------|---------------2--|
 |-----------------|----------------|------------------|
/

Chorus:

\        Cadd9             G6/B         Dsus2    G6/B
 |----------0------|---------0------|-----0h2----------|
 |--------3---3----|-------3---3----|---3-----3--------|
 |------0-------0--|-----0-------0--|-2---------3------|
 |----0-----------0|---0-----------0|-------------0---0|
 |--3--------------|-2--------------|---------------2--|
 |-----------------|----------------|------------------|
/           Now those days are gone

\        G6/B         Dsus2    Emin7
 |---------0------|-----0h2----------|
 |-------3---3----|---3-----3--------|
 |-----0-------0--|-2---------0------|
 |---0-----------0|-------------2---2|
 |-2--------------|---------------2--|
 |----------------|------------------|
/         
        Slowly, they'd slip away

Instrumental

\        Cadd9             G6/B         Dsus2    G6/B
 |----------0------|---------0------|-----0h2----------|
 |--------3---3----|-------3---3----|---3-----3--------|
 |------0-------0--|-----0-------0--|-2---------3------|
 |----0-----------0|---0-----------0|-------------0---0|
 |--3--------------|-2--------------|---------------2--|
 |-----------------|----------------|------------------|
/

Verse 2:

\        Cadd9             G6/B         Dsus2    G6/B
 |----------0------|---------0------|-----0h2----------|
 |--------3---3----|-------3---3----|---3-----3--------|
 |------0-------0--|-----0-------0--|-2---------3------|
 |----0-----------0|---0-----------0|-------------0---0|
 |--3--------------|-2--------------|---------------2--|
 |-----------------|----------------|------------------|
/           I still go out by the old house

\        Cadd9             G6/B         Dsus2    G6/B
 |----------0------|---------0------|-----0h2----------|
 |--------3---3----|-------3---3----|---3-----3--------|
 |------0-------0--|-----0-------0--|-2---------3------|
 |----0-----------0|---0-----------0|-------------0---0|
 |--3--------------|-2--------------|---------------2--|
 |-----------------|----------------|------------------|
/           Where I met you our first summer

\        Cadd9             G6/B         Dsus2    G6/B
 |----------0------|---------0------|-----0h2----------|
 |--------3---3----|-------3---3----|---3-----3--------|
 |------0-------0--|-----0-------0--|-2---------3------|
 |----0-----------0|---0-----------0|-------------0---0|
 |--3--------------|-2--------------|---------------2--|
 |-----------------|----------------|------------------|
/           Where are you now, you're with another

\        Cadd9             G6/B         Dsus2    G6/B
 |----------0------|---------0------|-----0h2----------|
 |--------3---3----|-------3---3----|---3-----3--------|
 |------0-------0--|-----0-------0--|-2---------3------|
 |----0-----------0|---0-----------0|-------------0---0|
 |--3--------------|-2--------------|---------------2--|
 |-----------------|----------------|------------------|
/          I am sitting by the curbside

\        Cadd9             G6/B         Dsus2    G6/B
 |----------0------|---------0------|-----0h2----------|
 |--------3---3----|-------3---3----|---3-----3--------|
 |------0-------0--|-----0-------0--|-2---------3------|
 |----0-----------0|---0-----------0|-------------0---0|
 |--3--------------|-2--------------|---------------2--|
 |-----------------|----------------|------------------|
/          Where we'd hang out under streetlights

\        Cadd9             G6/B         Dsus2    G6/B
 |----------0------|---------0------|-----0h2----------|
 |--------3---3----|-------3---3----|---3-----3--------|
 |------0-------0--|-----0-------0--|-2---------3------|
 |----0-----------0|---0-----------0|-------------0---0|
 |--3--------------|-2--------------|---------------2--|
 |-----------------|----------------|------------------|
/          How those times are still with me

Instrumental:

\        Cadd9             G6/B         Dsus2    G6/B
 |----------0------|---------0------|-----0h2----------|
 |--------3---3----|-------3---3----|---3-----3--------|
 |------0-------0--|-----0-------0--|-2---------3------|
 |----0-----------0|---0-----------0|-------------0---0|
 |--3--------------|-2--------------|---------------2--|
 |-----------------|----------------|------------------|
/

Chorus:

\        Cadd9             G6/B         Dsus2    G6/B
 |----------0------|---------0------|-----0h2----------|
 |--------3---3----|-------3---3----|---3-----3--------|
 |------0-------0--|-----0-------0--|-2---------3------|
 |----0-----------0|---0-----------0|-------------0---0|
 |--3--------------|-2--------------|---------------2--|
 |-----------------|----------------|------------------|
/           Now those days are gone

\        G6/B         Dsus2    Emin7
 |---------0------|-----0h2----------|
 |-------3---3----|---3-----3--------|
 |-----0-------0--|-2---------0------|
 |---0-----------0|-------------2---2|
 |-2--------------|---------------2--|
 |----------------|------------------|
/         
        Slowly, they'd slip away

\      Emin7
 |-----------3|\
 |---------3--|
 |-------0----|      Fade Out
 |-----2------| During last line
 |---2--------|
 |-0----------|/
/         
        Slowly, they'd slip away
            
Hard to play? Try these video lessons and learn fast. | Correct




comments powered by Disqus
↑ Back to top | Tablatures and chords are parodies/interpretations of the original songs. You may use it for private study, scholarship, research or language learning purposes only