» » »

To Hell Or Barbados Tabs (ver.1)

Artists:  A B C D E F G H I J K L M N O P Q R S T U V W X Y Z # 

To Hell Or Barbados Tabs (ver.1)

Damien Dempsey
Rating:
0/5 (0 votes)

Hard to play? Try these video lessons and learn fast.
                Capo 2nd Fret: tab relevant to the capo
Intro:

e|---------------------------------------------------------------------------|
B|---1----1-----3-----5-----5--------7--8-----7-----5-------3------5---------|
G|-----0----0-----0-----0-----0-----------0-----0-----0-------0------0-------|
D|---2---2----2-----4------5----5----7------9-----7-----5-------4------5-----|
A|---------------------------------------------------------------------------|
E|---------------------------------------------------------------------------|

e|---------------------------------------------------------------------------|
B|--5------5-------5--3--1------1----------3---5-----5-------------7---------|
G|----0-------0------------0-------0-------------0------0--------------------|
D|------5--------5----4------2---------2---4-------5-------5-------7---------|
A|---------------------------------------------------------------------------|
E|---------------------------------------------------------------------------|

e|---------------------------------------------------------------------------|
B|--8----------7----------5--------3---------5-------5--------5--------------|
G|-----0----------0----------0-------0---------0--------0--------------------|
D|---------9---------7----------5-------4---------5---------5----------------|
A|---------------------------------------------------------------------------|
E|---------------------------------------------------------------------------|

Verse:
            C             G
All the golden soft silk sand 
            F                 G
That surrounds this pretty island 
            F                 Em            G     G7     
Must have seemed like prison walls steely bars
             C              G
In this play ground of the rich 
           F                    G
All the yachts and champagne lavish
         F              Em              G     G7
I still see a lonely child watch the stars


Pre chorus
Am                  Am7
Oliver your evil deeds 
G               G7
Many still condone 
F
You sent me far cross the sea
        Em
To be owned


Chorus 
                Am  Am7  Am
To hell or Barbados
                G     G7
To hell or Barbados 
             F             Em
To hell or Barbados 
         Am
We were sent

The rest of the song folows the same chord pattern.
            
Hard to play? Try these video lessons and learn fast. | Correct




comments powered by Disqus
↑ Back to top | Tablatures and chords are parodies/interpretations of the original songs. You may use it for private study, scholarship, research or language learning purposes only