» » »

Damian Marley, As We Enter Tabs (ver.1)

Artists:  A B C D E F G H I J K L M N O P Q R S T U V W X Y Z # 

As We Enter Tabs (ver.1)

Damian Marley Tabs
Rating:
0/5 (0 votes)
As We Enter lessons Tabs too difficult? Try these video lessons and learn fast
                Damian Marley ft. Nas - As We Enter

Tuning: Standard

NOTE: I thought it'd be pretty cool to tab this in Drop D as well, 
just for that heavier sound, if you wanna play in Drop D, 
just change the verse where it's a G note (3 on top E) 
to a G note after re-tuning (5 on new top D) 
and in the Chorus just bar the 5th fret for a G chord.


This one is really simple, so no need for faffing around, minimalistic.



Intro
|-----------------------------------------|
|-----------------------------------------|
|--8-\-7--7/9/10--------------------------|
|--x-\-x--5/7/8---------------------------|
|--6-\-5---------1010-10-10---------------|
|-----------------------------------------|



Verse
|-----------------------------------------|
|-----------------------------------------|
|------7/12-12-12\7-----------------------|
|--5~--x/-x--x--x\x-----------------------| x necessary amount
|--x---5/10-10-10\5-----------------------|
|--3~-------------------------------------|



Chorus
|---------------9-7-----------------------(9)-(7)--------------------|
|--------------------------------------------------------------------|
|--------------------------------------------------------------------|
|--5--5-5-5-555-----5-5-5-555--5-5-5-555--5-5-5-555-555--12v~--------|
|--5--5-5-5-555-----5-5-5-555--5-5-5-555--5-5-5-555-555--------------|
|--3--3-3-3-333-----3-3-3-333--3-3-3-333--3-3-3-333-333--------------|


Repeat parts as necessary.
            

comments powered by Disqus
↑ Back to top | Damian Marley Tabs for As We Enter. Lyrics for acoustic guitar and electric guitar. Tablatures and chords are parodies/interpretations of the original songs. You may use it for private study, scholarship, research or language learning purposes only