>
 >
Pride

Pride Bass Tabs

Damageplan - Pride chords, tabs, tablatures, lyrics

Guitar lessons | Add/correct | Request | Top 50 tabs Artists:  A B C D E F G H I J K L M N O P Q R S T U V W X Y Z 0-9

Pride Bass Tabs – Damageplan

CD, Sheet music, Poster

Do you like Pride? Share with your friends now
Bass TabsTabsTabs v2
Band- Damageplan
Song- Pride

Gtr I (B F# B E) - 'Bob Zilla'
Gtr II (B F# B E G# C#) - 'Warp'
Gtr III (B F# B E G# C#) - 'Whammy Pedal'

 Intro
  Moderate Rock Q=91
 4/4
  Gtr I
  Wx8          W          +W
|------------|----------|--------|
|------------|----------|--------|
|------------|----------|--------|
|------------|-2--------|-(2)----|


  W          +W
|----------|--------|
|----------|--------|
|----------|--------|
|-2--------|-(2)----|


   E  +H      Q  E    E  +H.       E
|------------------|-----------------|
|------------------|-----------------|
|------------------|-----------------|
|-14-(14)\-------0-|-14-(14)\--------|


   E  +H      Q  E    E  +H      E  Q
|------------------|--------------------|
|------------------|--------------------|
|------------------|--------------------|
|-14-(14)\-------0-|-14-(14)\----0-12\--|


    S E S S E S S E S S E S   S E S S E S S E S S E S
||--------------------------|-------------------------|
||o-------------------------|-------------------------|
||o-------------------------|-------------------------|
||--2-2-0-2-2-0-2-2-0-2-2-0-|-5-5-0-5-5-0-5-5-0-5-5-0-|


                                        |-3-| |-3-|
  S E S S E S S E S S E S   S E S S E S E E E E E E
|-------------------------|--------------------------||
|-------------------------|-------------------------o||
|-------------------------|-------------5-----------o||
|-2-2-0-2-2-0-2-2-0-2-2-0-|-5-5-0-5-5-0---9-8-7-5-0--||


 Pre-Verse I & II
  $
  S E   S S E   S S E   S S E   S   S E   S S E   S S E   S S E   S
|---------------------------------|---------------------------------|
|---------------------------------|---------------------------------|
|---------------------------------|---------------------------------|
|-2-2---0-2-2---0-2-2---0-2-2---0-|-5-5---0-5-5---0-5-5---0-5-5---0-|
|
| Gtr II
| PM--------------------------------------------------------------|
| s s s s s s s s s s s s s s s s   s s s s s s s s s s s s s s s s
|---------------------------------|---------------------------------|
|---------------------------------|---------------------------------|
|---------------------------------|---------------------------------|
|---------------------------------|---------------------------------|
|---------------------------------|---------------------------------|
|-2-2-2-0-2-2-2-0-2-2-2-0-2-2-2-0-|-2-2-2-0-2-2-2-0-2-2-2-0-2-2-2-0-|


  S E   S S E   S S E   S S E   S   S E   S S E   S S E   S S E   S
|---------------------------------|---------------------------------|
|---------------------------------|---------------------------------|
|---------------------------------|---------------------------------|
|-2-2---0-2-2---0-2-2---0-2-2---0-|-5-5---0-5-5---0-5-5---0-5-5---0-|
|
| Gtrs II, III
| PM--------------------------------------------------------------|
| s s s s s s s s s s s s s s s s   s s s s s s s s s s s s s s s s
|---------------------------------|---------------------------------|
|---------------------------------|---------------------------------|
|---------------------------------|---------------------------------|
|---------------------------------|---------------------------------|
|---------------------------------|---------------------------------|
|-2-2-2-0-2-2-2-0-2-2-2-0-2-2-2-0-|-2-2-2-0-2-2-2-0-2-2-2-0-2-2-2-0-|


   Verse I & II
    Gtr I
    S E   S S E   S S E   S S E   S   S E   S S E   S S E   S S E   S
||----------------------------------|----------------------------------|
||o---------------------------------|----------------------------------|
||o---------------------------------|----------------------------------|
||--2-2---0-2-2---0-2-2---0-2-2---0-|-5-5---0-5-5---0-5-5---0-5-5---0--|
|
|   Gtr II
|   PM--------------------------------------------------------------|
|   s s s s s s s s s s s s s s s s   s s s s s s s s s s s s s s s s
||----------------------------------|----------------------------------|
||o---------------------------------|----------------------------------|
||----------------------------------|----------------------------------|
||----------------------------------|----------------------------------|
||o---------------------------------|----------------------------------|
||--2-2-2-0-2-2-2-0-2-2-2-0-2-2-2-0-|-2-2-2-0-2-2-2-0-2-2-2-0-2-2-2-0--|


  S E   S S E   S S E   S S E   S   S E   S S E   S S E   S S E   S
|---------------------------------|----------------------------------||
|---------------------------------|---------------------------------o||
|---------------------------------|---------------------------------o||
|-2-2---0-2-2---0-2-2---0-2-2---0-|-5-5---0-5-5---0-7-7---0-7-7---0--||
|
| PM--------------------------------------------------------------|
| s s s s s s s s s s s s s s s s   s s s s s s s s s s s s s s s s
|---------------------------------|----------------------------------||
|---------------------------------|---------------------------------o||
|---------------------------------|----------------------------------||
|---------------------------------|----------------------------------||
|---------------------------------|---------------------------------o||
|-2-2-2-0-2-2-2-0-2-2-2-0-2-2-2-0-|-2-2-2-0-2-2-2-0-2-2-2-0-2-2-2-0--||


 Chorus I & II
  S E S S E S S E S S E S   S E S S E S S E S S E S
|-------------------------|-------------------------|
|-------------------------|-------------------------|
|-------------------------|-------------------------|
|-2-2-0-2-2-0-2-2-0-2-2-0-|-5-5-0-5-5-0-5-5-0-5-5-0-|


                                        |-3-| |-3-|
  S E S S E S S E S S E S   S E S S E S E E E E E E
|-------------------------|-------------------------|
|-------------------------|-------------------------|
|-------------------------|-------------5-----------|
|-2-2-0-2-2-0-2-2-0-2-2-0-|-5-5-0-5-5-0---9-8-7-5-0-|


  S E S S E S S E S S E S   S E S S E S S E S S E S
|-------------------------|-------------------------|
|-------------------------|-------------------------|
|-------------------------|-------------------------|
|-2-2-0-2-2-0-2-2-0-2-2-0-|-5-5-0-5-5-0-5-5-0-5-5-0-|


                                              D.S.
                                        |-3-| |-3-|
  S E S S E S S E S S E S   S E S S E S E E E E E E
|-------------------------|-------------------------|
|-------------------------|-------------------------|
|-------------------------|-------------5-----------|
|-2-2-0-2-2-0-2-2-0-2-2-0-|-5-5-0-5-5-0---9-8-7-5-0-|


 Interlude
  E H    Q  E   Q  E E  Q.  E
|-------------|---------------|
|-------------|---------------|
|-------------|---------------|
|-2-----------|--------12s==0-|


    E Q  E E Q  E   E Q  E E E S S S S   E Q  E E Q  E   E Q  E E E S S S S
||----------------|--------------------|---------------|----------------------||
||o---------------|--------------------|---------------|---------------------o||
||o---------------|--------------------|---------------|---------------------o||
||--2------2------|-2------2---3p2-0h1-|-2------2------|-2------2---3p2-0h1---||


  E Q  E E Q  E   E Q  E E E S S S S
|---------------|--------------------|
|---------------|--------------------|
|---------------|--------------------|
|-2------2------|-2------2---3p2-0h1-|


   Guitar Solo
    E S S S S S S E S S S S S S   E S S S S S S E S S +S  E S  3x
||------------------------------|------------------------------||
||o-----------------------------|-----------------------------o||
||o-----------------------------|-----------------------------o||
||--2---0-2-5-2p0-2---0-2-5-2p0-|-2---0-2-5-2p0-2---3-(3)-0-1--||


  E S S S S S S E S S S S S S   E S S S S S S E E E E
|-----------------------------|-----------------------|
|-----------------------------|-----------------------|
|-----------------------------|-----------------------|
|-2---0-2-5-2p0-2---0-2-5-2p0-|-2---0-2-5-2p0-5-5-7-7-|


   Q        H               Q         W
|-----------------------------------|-----------------------------------------|
|-----------------------------------|-----------------------------------------|
|-----------------------------------|-----------------------------------------|
|-14\-------------------------------|-----------------------------------------|
|
| Gtrs II, III
|  s  s s s s s s s s s s s s s s s   s s s s  s   s   s   s  s s s s s s s s
|-----------------------------------|-----------------------------------------|
|-----------------------------------|-----------------------------------------|
|-----------------------------------|-----------------------------------------|
|--x--x-x-x-x-x-x-x-x-x-x-x-x-x-x-x-|-x-x-x-x-----x-x-x-x-x-x-x-x-|
|--x--x-x-x-x-x-x-x-x-x-x-x-x-x-x-x-|-x-x-x-x-----x-x-x-x-x-x-x-x-|
|--x--x-x-x-x-x-x-x-x-x-x-x-x-x-x-x-|-x-x-x-x-----x-x-x-x-x-x-x-x-|


   Out-Chorus
    S E S S E S S E S S E S   S E S S E S S E S S E S
||--------------------------|-------------------------|
||o-------------------------|-------------------------|
||o-------------------------|-------------------------|
||--2-2-0-2-2-0-2-2-0-2-2-0-|-5-5-0-5-5-0-5-5-0-5-5-0-|


                                        |-3-| |-3-|
  S E S S E S S E S S E S   S E S S E S E E E E E E
|-------------------------|--------------------------||
|-------------------------|-------------------------o||
|-------------------------|-------------5-----------o||
|-2-2-0-2-2-0-2-2-0-2-2-0-|-5-5-0-5-5-0---9-8-7-5-0--||


 Outro
  Gtr I
                   |--3--|                    |--3--|
  Q.   a  E  +E    S   Q Q   Q.   a  E  +E    S   Q Q
|--------------------------|--------------------------|
|--------------------------|--------------------------|
|--------------------------|--------------------------|
|-2----2s18-(18)--18\--0-1-|-2----2s18-(18)--18\--0-1-|
|
| Gtrs II, III
|                  |--3--|                    |--3--|
| Q.   a  E  +E   +S   Q Q   Q.   a  E  +E   +S   Q Q
|--------------------------|--------------------------|
|------9s21-(21)-(21)\-----|------9s21-(21)-(21)\-----|
|--------------------------|--------------------------|
|------6s18-(18)-(18)\-----|------6s18-(18)-(18)\-----|
|-2--------------------0-1-|-2--------------------0-1-|
|-2--------------------0-1-|-2--------------------0-1-|


  Gtr I
                   |--3--|                    |--3--|
  Q.   a  E  +E    S   Q Q   Q.   a  E  +E    S   Q Q   Q   H    Q
|--------------------------|--------------------------|--------------*|
|--------------------------|--------------------------|--------------*|
|--------------------------|--------------------------|--------------*|
|-2----2s18-(18)--18\--0-1-|-2----2s18-(18)--18\--0-1-|-2\-----------*|
|
| Gtrs II, III
|                  |--3--|                    |--3--|
| Q.   a  E  +E   +S   Q Q   Q.   a  E  +E   +S   Q Q   Q   H    Q
|--------------------------|--------------------------|--------------*|
|------9s21-(21)-(21)\-----|------9s21-(21)-(21)\-----|--------------*|
|--------------------------|--------------------------|--------------*|
|------6s18-(18)-(18)\-----|------6s18-(18)-(18)\-----|--------------*|
|-2--------------------0-1-|-2--------------------0-1-|-2\-----------*|
|-2--------------------0-1-|-2--------------------0-1-|-2\-----------*|


Duration Legend
---------------
W - whole; H - half; Q - quarter; E - 8th; S - 16th; T - 32nd; X - 64th; a - acciaccatura
+ - note tied to previous; . - note dotted; .. - note double dotted
Uncapitalized letters represent notes that are staccato (1/2 duration)
Irregular groupings are notated above the duration line
Duration letters will always appear directly above the note/fret number it represents the
duration for.  Duration letters with no fret number below them represent rests.  Multi-
bar rests are notated in the form Wxn, where n is the number of bars to rest for.  Low
melody durations appear below the staff

Tablature Legend
----------------
 h   - hammer-on
 p   - pull-off
 b   - bend
 pb  - pre-bend
 r   - bend release (if no number after the r, then release immediately)
 /\  - slide into or out of (from/to "nowhere")
 s   - legato slide
 S   - shift slide
  - natural harmonic
[n]  - artificial harmonic
n(n) - tapped harmonic
 ~   - vibrato
 tr  - trill
 T   - tap
 TP  - trem. picking
 PM  - palm muting
\n/  - tremolo bar dip; n = amount to dip
 \n  - tremolo bar down
 n/  - tremolo bar up
/n\  - tremolo bar inverted dip
 =   - hold bend; also acts as connecting device for hammers/pulls
 <>  - volume swell (louder/softer)
 x   - on rhythm slash represents muted slash
 o   - on rhythm slash represents single note slash

Misc Legend
-----------
 |  - bar
||  - double bar
||o - repeat start
o|| - repeat end
*|  - double bar (ending)
 :  - bar (freetime)
 $  - Segno
 &  - Coda
Tempo markers -  = BPM(8/16=s8/s16), where s8 = swing 8ths, s16 = swing 16ths


***************************************************************************************
***************************************************************************************





Comments


Popular Damageplan tabs & chords
Blink Of An Eye Tabs
Breathing New Life 1 Tabs
Fuck You Tabs
Fuck You Intro Tabs
Moment Of Truth Tabs
New Found Power 1 Tabs
Pride Tabs
Save Me Tabs
Soul Bleed Tabs
Wake Up Tabs


Song lyrics



↑ Back to top | Tablatures and chords are parodies/interpretations of the original songs. You may use it for private study, scholarship, research or language learning purposes only
© 2014 AZChords.com Contact us | Privacy policy | DMCA | Add/correct tabs | Request tabs | Top 50 tabs