>
 >
New Found Power

New Found Power Guitar Tabs

Damageplan - New Found Power chords, tabs, tablatures, lyrics

Guitar lessons | Add/correct | Request | Top 50 tabs Artists:  A B C D E F G H I J K L M N O P Q R S T U V W X Y Z 0-9

New Found Power Guitar Tabs – Damageplan

CD, Sheet music, Poster

Do you like New Found Power? Share with your friends now
TabsTabs v2
Band- Damageplan
Song- New Found Power

Gtr I (Bb F Bb Eb G C) - 'Dist. Gtr. I (Rhy.)'
Gtr II (Bb F Bb Eb G C) - 'Dist. Gtr. II (Rhy.)'
Gtr III (Bb F Bb Eb G C) - 'Solo Gtr.'

 Intro
  Moderate Metal Q=115
  N.C.(D5)
 6/4
  Gtr I
  PM--------------------------------
  E. E S S E E S S E E     S E E E
|----------------------------------|
|----------------------------------|
|----------------------------------|
|----------------------------------|
|----------------------------------|
|-0--0-0-3-0-0-0-3-0-0-----0-3-7-6-|
|
| Gtr II
| >
| W                    +H
|----------------------------------|
|----------------------------------|
|----------------------------------|
|-0--------------------(0)---------|
|-0--------------------(0)---------|
|-0--------------------(0)---------|


                                     (D)
 ---------------------------------------------------------------|
  E. E S S E E S S E E     S E E E   E. E S S E E S S E E S E E E
|----------------------------------|--------------------------------|
|----------------------------------|--------------------------------|
|----------------------------------|--------------------------------|
|----------------------------------|--------------------------------|
|----------------------------------|--------------------------------|
|-0--0-0-3-0-0-0-3-0-0-----0-3-7-6-|-0--0-0-3-0-0-0-3-0-0-0-3-7-6---|
|
| >
|                                    PM-------------------------|
| W                    +H            E. E S S E E S S E E S E E E
|----------------------------------|--------------------------------|
|----------------------------------|--------------------------------|
|----------------------------------|--------------------------2-1---|
|-0--------------------(0)---------|-0--0-0-3-0-0-0-3-0-0-0-3-------|
|-0--------------------(0)---------|--------------------------------|
|-0--------------------(0)---------|--------------------------------|


                               Accel Q=118
  (D)                              D5     F5D5    F5D5    F5A5Ab5
  PM--------------------------------------------------------|
  E. E S S E E S S E E S E E E     E. E S S E E S S E E S E E E  4x
|------------------------------||--------------------------------||
|------------------------------||o------------------------------o||
|------------------------------||--------------------------------||
|------------------------------||--------------------------------||
|------------------------------||o-0--0-0-3-0-0-0-3-0-0-0-3-7-6-o||
|-0--0-0-3-0-0-0-3-0-0-0-3-7-6-||--0--0-0-3-0-0-0-3-0-0-0-3-7-6--||
|
| PM--------------------------------------------------------|
| E. E S S E E S S E E S E E E     E. E S S E E S S E E S E E E  4x
|------------------------------||--------------------------------||
|------------------------------||o------------------------------o||
|--------------------------2-1-||--------------------------------||
|-0--0-0-3-0-0-0-3-0-0-0-3-----||--------------------------------||
|------------------------------||o-0--0-0-3-0-0-0-3-0-0-0-3-7-6-o||
|------------------------------||--0--0-0-3-0-0-0-3-0-0-0-3-7-6--||


 Verses
  Faster Q=121
  $
  D5   E5   F5         D5   F5    G#5
  Gtrs I, II
             ~~~                    ~~~~
  Q.   Q.    H.        Q.    Q.     H.
|--------------------|----------------------|
|--------------------|----------------------|
|-7----9----10-------|-7----10----/13-------|
|-7----9----10-------|-7----10----/13-------|
|-5----7-----8-------|-5-----8----/11-------|
|--------------------|----------------------|


  D5   E5   F5         D5   F5    G#5
             ~~~                    ~~~~
  Q.   Q.    H.        Q.    Q.     H.
|--------------------|--------------------|
|--------------------|--------------------|
|-7----9----10-------|-7----10----/13-----|
|-7----9----10-------|-7----10----/13-----|
|-5----7-----8-------|-5-----8----/11-----|
|--------------------|--------------------|


  Accel Q=122
  N.C.
  S S S S S S S S S S S S S S S S S S S S S S S S
|-------------------------------------------------|
|-------------------------------------------------|
|-------------------------------------------------|
|-------------------------------------3-3-3-3-3-3-|
|-5-5-5-5-5-5-3-3-3-3-3-3-5-5-5-5-5-5-------------|
|-------------------------------------------------|
|
| Gtr II
| S S S S S S S S S S S S S S S S S S S S S S S S
|-------------------------------------------------|
|-------------------------------------6-6-6-6-6-6-|
|-7-7-7-7-7-7-5-5-5-5-5-5-7-7-7-7-7-7-------------|
|-------------------------------------------------|
|-------------------------------------------------|
|-------------------------------------------------|


  S S S S S S S S S S S S S S S S S S S S S S S S
|--------------------------------------------------|
|--------------------------------------------------|
|--------------------------------------------------|
|-------------------------------------1-1-1-1-1-1--|
|-5-5-5-5-5-5-3-3-3-3-3-3-5-5-5-5-5-5--------------|
|--------------------------------------------------|
|
| S S S S S S S S S S S S S S S S S S S S S S S S
|--------------------------------------------------|
|-------------------------------------4-4-4-4-4-4--|
|-7-7-7-7-7-7-5-5-5-5-5-5-7-7-7-7-7-7--------------|
|--------------------------------------------------|
|--------------------------------------------------|
|--------------------------------------------------|


  N.C.
  S     S   S S S S S     S   S S S S S     S   S S S S S      S   S S S S
|--------------------------------------------------------------------------|
|--------------------------------------------------------------------------|
|--------------------------------------------------------------------------|
|-------------------------------------------------------3------3---3-3-3-3-|
|-5-----5---5-5-5-5-3-----3---3-3-3-3-5-----5---5-5-5-5--------------------|
|--------------------------------------------------------------------------|
|
| S     S   S S S S S     S   S S S S S     S   S S S S S      S   S S S S
|--------------------------------------------------------------------------|
|-------------------------------------------------------6------6---6-6-6-6-|
|-7-----7---7-7-7-7-5-----5---5-5-5-5-7-----7---7-7-7-7--------------------|
|--------------------------------------------------------------------------|
|--------------------------------------------------------------------------|
|--------------------------------------------------------------------------|
|
| Gtr III
| S    +Q         S S    +Q         S S    +Q         S S     +Q         S
|--------------------------------------------------------------------------|
|-3----(3)----------1----(1)----------4----(4)----------6-----(6)----------|
|-5b7==(5)r---------3b5==(3)r---------6b8==(6)r---------8b10==(8)r---------|
|--------------------------------------------------------------------------|
|--------------------------------------------------------------------------|
|--------------------------------------------------------------------------|


                                                         Eb5
  S     S   S S S S S     S   S S S S S      S   S S S S  S     S   S   S S S
|------------------------------------------------------------------------------||
|------------------------------------------------------------------------------||
|---------------------------------------------------------3-----3---3---3-3-3--||
|---------------------------------------------------------1-----1---1---1-1-1--||
|-5-----5---5-5-5-5-3-----3---3-3-3-3-5------5---5-5-5-5-----------------------||
|------------------------------------------------------------------------------||
|
| S     S   S S S S S     S   S S S S S      S   S S S S  S     S   S   S S S
|------------------------------------------------------------------------------||
|---------------------------------------------------------4-----4---4---4-4-4--||
|-7-----7---7-7-7-7-5-----5---5-5-5-5-7------7---7-7-7-7-----------------------||
|------------------------------------------------------------------------------||
|------------------------------------------------------------------------------||
|------------------------------------------------------------------------------||
|
|                                                                   ~~~~~
| S    +Q         S S    +Q         S S     +Q         S  E        +Q
|------------------------------------------------------------------------------||
|-5----(5)----------1----(1)----------6-----(6)-----------8--------(8)---------||
|-7b9==(7)r---------3b5==(3)r---------8b10==(8)r---------10b12====(10)r--------||
|------------------------------------------------------------------------------||
|------------------------------------------------------------------------------||
|------------------------------------------------------------------------------||


   1st and 2nd Chorus
                                                            D.S.
    F5D5    F5D5    F5D5    F5A5Ab5 F5D5    F5D5    F5D5    F5A5Ab5
    Gtrs I, II
    PM--------------------|         PM--------------------|
    S E E S S E E S S E E S E E E   S E E S S E E S S E E S E E E
||--------------------------------|---------------------------------||
||o-------------------------------|--------------------------------o||
||--------------------------------|---------------------------------||
||--------------------------------|---------------------------------||
||o-3-0-0-0-3-0-0-0-3-0-0-0-3-7-6-|-3-0-0-0-3-0-0-0-3-0-0-0-3-7-6--o||
||--3-0-0-0-3-0-0-0-3-0-0-0-3-7-6-|-3-0-0-0-3-0-0-0-3-0-0-0-3-7-6---||


   Breakdown
    Accel Q=126
    G5      Bb5     A5     N.C.(D)
                          4/4
                           PM-------------------------------
    H.       E +Q   Q.     S S S S S S S S S S S S S S S S
||-----------------------|---------------------------------|
||o----------------------|---------------------------------|
||-----------------------|---------------------------------|
||--5-------/8-(8)--7----|---------------------------------|
||o-5-------/8-(8)--7----|---------------------------------|
||--5-------/8-(8)--7----|-0-0-0-0-5-0-3-0-0-0-0-0-5-0-5-6-|


 -------------------------------|
  S S S S S S S S S S S S S S S S
|-----------------------------------|
|-----------------------------------|
|-----------------------------------|
|-----------------------------------|
|-----------------------------------|
|-0-0-0-0-5-0-3-0-0-0-0-0-5-0-5-6---|


                                                        A
  F5      E5     Eb5    (D)
 6/4                   4/4
                        PM-------------------------------
  H.      E +Q   Q.     S S S S S S S S S S S S S S S S
|---------------------|---------------------------------|
|---------------------|---------------------------------|
|---------------------|---------------------------------|
|-3-------2-(2)--1----|---------------------------------|
|-3-------2-(2)--1----|---------------------------------|
|-3-------2-(2)--1----|-0-0-0-0-5-0-3-0-0-0-0-0-5-0-5-6-|


 ccel Q=128
 -------------------------------|
  S S S S S S S S S S S S S S S S
|-----------------------------------||
|----------------------------------o||
|-----------------------------------||
|-----------------------------------||
|----------------------------------o||
|-0-0-0-0-5-0-3-0-0-0-0-0-5-0-5-6---||


    Faster Q=132          1.                       2.
    G5      Bb5     A5     G5      Bb5     A5       D5
   6/4
    H.       E +Q   Q.     H.       E +Q   Q.       W.
||-----------------------|-----------------------||-------||
||o----------------------|----------------------o||-------||
||-----------------------|-----------------------||-------||
||--5-------/8-(8)--7----|-5-------/8-(8)--7-----||-0-----||
||o-5-------/8-(8)--7----|-5-------/8-(8)--7----o||-0-----||
||--5-------/8-(8)--7----|-5-------/8-(8)--7-----||-0-----||


   Bridge
    Slow a bit Q=127
    F5      Ab5   F5      Ab5     F5      Ab5   F5        Eb5
      PM--|         PM--|           PM--|
    S E E S E E E S E E S E E E   S E E S E E E S S S S E S S S S E   4x
||------------------------------|-------------------------------------||
||o-----------------------------|------------------------------------o||
||------------------------------|-------------------------------------||
||--3-------6-6-6-3-------6-6-6-|-3-------6-6-6-3-3-3-3-3-1-1-1-1-1---||
||o-3-------6-6-6-3-------6-6-6-|-3-------6-6-6-3-3-3-3-3-1-1-1-1-1--o||
||--3-0-0-0-6-6-6-3-0-0-0-6-6-6-|-3-0-0-0-6-6-6-3-3-3-3-3-1-1-1-1-1---||


 Guitar Solo
  G5                         Bb5                    A5
  Gtr III
           ~~~~~~~~~~~~                               ~~~~~
                   |-------6--------|
   E      +H      +S    S  S  S  S  S  S   S  E      +Q.
|-20b22==(20)----(20)r-17p15-18p17p15-----15----------------|
|-------------------------------------18-----18b20==(18)r---|
|-----------------------------------------------------------|
|-----------------------------------------------------------|
|-----------------------------------------------------------|
|-----------------------------------------------------------|
|
| Gtrs I, II
|  H.                         E       +Q              Q.
|-----------------------------------------------------------|
|-----------------------------------------------------------|
|-----------------------------------------------------------|
|--5-------------------------/8-------(8)-------------7-----|
|--5-------------------------/8-------(8)-------------7-----|
|--5-------------------------/8-------(8)-------------7-----|


           G5           Bb5     A5           G5             Bb5         A5
                                             ~~~~~~~~
   S         Q    +W                +S   E   Q.    Q   E  a  Q      E a  Q   E
|-24b25.5==(24)--(24)r=============(24)-10-|-8--------10-------------------------|
|-----------24---(24)----------------------|------11-----------------------------|
|------------------------------------------|-------------10h12-----10------------|
|------------------------------------------|--------------------------8h10---8---|
|------------------------------------------|-------------------------------------|
|------------------------------------------|-------------------------------------|
|
|  H.                    E +Q   Q.           H.              E +Q        Q.
|------------------------------------------|-------------------------------------|
|------------------------------------------|-------------------------------------|
|------------------------------------------|-------------------------------------|
|--5--------------------/8-(8)--7----------|-5--------------/8-(8)-------7-------|
|--5--------------------/8-(8)--7----------|-5--------------/8-(8)-------7-------|
|--5--------------------/8-(8)--7----------|-5--------------/8-(8)-------7-------|


  Slower Q=115
  N.C.                              (D)
 4/4                               6/4
                                Gtr I
                                    PM-------------------------|
   Q.      Q.      Q        a       E. E S S E E S S E E S E E E
|-18b24---18b24---18b24===(18)r-||--------------------------------||
|-------------------------------||o------------------------------o||
|-------------------------------||--------------------------------||
|-------------------------------||--------------------------------||
|-------------------------------||o------------------------------o||
|-------------------------------||--0--0-0-3-0-0-0-3-0-0-0-3-7-6--||
|
|                                   PM-------------------------|
|  W                                E. E S S E E S S E E S E E E
|-------------------------------||--------------------------------||
|-------------------------------||o------------------------------o||
|-------------------------------||---------------------------2-1--||
|-------------------------------||--0--0-0-3-0-0-0-3-0-0-0-3------||
|-------------------------------||o------------------------------o||
|-------------------------------||--------------------------------||


                                        3rd Chorus
                                     Q=123
    D5     F5D5    F5D5    F5A5Ab5       F5D5    F5D5    F5D5    F5A5Ab5
    Gtrs I, II
    PM-----------------------|           PM--------------------|
    E. E S S E E S S E E S E E E         S E E S S E E S S E E S E E E   4x
||--------------------------------||-||----------------------------------||
||o------------------------------o||-||o--------------------------------o||
||--------------------------------||-||----------------------------------||
||--------------------------------||-||----------------------------------||
||o-0--0-0-3-0-0-0-3-0-0-0-3-7-6-o||-||o-3-0-0-0-3-0-0-0-3-0-0-0-3-7-6--o||
||--0--0-0-3-0-0-0-3-0-0-0-3-7-6--||-||--3-0-0-0-3-0-0-0-3-0-0-0-3-7-6---||


   Outro
    D5                    G5Ab5
    Gtr III
    Q.   Q.   E     +H      +S  +S   3x
||-----------------------------------||
||o------5----6-----(6)-----(6)-(6)-o||
||--7----7----8b10==(8)-----(8)r(8)--||
||-----------------------------------||
||o---------------------------------o||
||-----------------------------------||
|
|   Gtrs I, II
|   PM---------------------------------
|   Q.   Q.   H           E  E       3x
||-----------------------------------||
||o---------------------------------o||
||-----------------------------------||
||--0----0----0-----------5--6-------||
||o-0----0----0-----------5--6------o||
||--0----0----0-----------5--6-------||


  D5                    G5Ab5       D5
                                     ~~~
  Q.   Q.   E     +H      +S  +S     E. S Q  W
|------3----5-----(5)-----(5)-(5)-|-13------------*|
|-6----5----6-----(6)-----(6)-(6)-|-15------------*|
|-7----7----8b10==(8)-----(8)r(8)-|---------------*|
|---------------------------------|---------------*|
|---------------------------------|---------------*|
|---------------------------------|---------------*|
|
|-------------------------|
| Q.   Q.   H           E  E         E. S Q  W
|---------------------------------|---------------*|
|---------------------------------|---------------*|
|---------------------------------|---------------*|
|-0----0----0-----------5--6------|--0------------*|
|-0----0----0-----------5--6------|--0------------*|
|-0----0----0-----------5--6------|--0------------*|


Duration Legend
---------------
W - whole; H - half; Q - quarter; E - 8th; S - 16th; T - 32nd; X - 64th; a - acciaccatura
+ - note tied to previous; . - note dotted; .. - note double dotted
Uncapitalized letters represent notes that are staccato (1/2 duration)
Irregular groupings are notated above the duration line
Duration letters will always appear directly above the note/fret number it represents the
duration for.  Duration letters with no fret number below them represent rests.  Multi-
bar rests are notated in the form Wxn, where n is the number of bars to rest for.  Low
melody durations appear below the staff

Tablature Legend
----------------
 h   - hammer-on
 p   - pull-off
 b   - bend
 pb  - pre-bend
 r   - bend release (if no number after the r, then release immediately)
 /\  - slide into or out of (from/to "nowhere")
 s   - legato slide
 S   - shift slide
  - natural harmonic
[n]  - artificial harmonic
n(n) - tapped harmonic
 ~   - vibrato
 tr  - trill
 T   - tap
 TP  - trem. picking
 PM  - palm muting
\n/  - tremolo bar dip; n = amount to dip
 \n  - tremolo bar down
 n/  - tremolo bar up
/n\  - tremolo bar inverted dip
 =   - hold bend; also acts as connecting device for hammers/pulls
 <>  - volume swell (louder/softer)
 x   - on rhythm slash represents muted slash
 o   - on rhythm slash represents single note slash

Misc Legend
-----------
 |  - bar
||  - double bar
||o - repeat start
o|| - repeat end
*|  - double bar (ending)
 :  - bar (freetime)
 $  - Segno
 &  - Coda
Tempo markers -  = BPM(8/16=s8/s16), where s8 = swing 8ths, s16 = swing 16ths


***************************************************************************************
***************************************************************************************





Comments


Popular Damageplan tabs & chords
Save Me Bass Tabs
Breathing New Life 1 Tabs
Caged In A Rage 1 Tabs
Crawl Tabs
Explode Tabs
Fuck You Intro Tabs
Moment Of Truth Tabs
New Found Power 1 Tabs
Save Me Tabs
Soul Bleed 2 Tabs


Song lyrics



↑ Back to top | Tablatures and chords are parodies/interpretations of the original songs. You may use it for private study, scholarship, research or language learning purposes only
© 2014 AZChords.com Contact us | Privacy policy | DMCA | Add/correct tabs | Request tabs | Top 50 tabs