» » »

Damageplan, Explode Tabs (ver.1)

Artists:  A B C D E F G H I J K L M N O P Q R S T U V W X Y Z # 

Explode Tabs (ver.1)

Damageplan Tabs
 Rating:
4/5 (8 votes)
Explode lessons Tabs too difficult? Try these video lessons and learn fast
                Damageplan - Explode
(New Found Power 2004 Track 7)

Intro
|--------------------------------|
|--------------------------------|
|--------------------------------|
|--------------------------------|
|--------------------------------|
|33333333444444441111111122222222| 4 Times


Verese/Chorus
|---------------------|
|---------------------|
|---------------------|
|---------------------|
|3-3-0-3-3-4-4-0-0-1-2|
|3-3-0-3-3-4-4-0-0-1-2| 8 Times

Solo
|----------------------------------------------------------------------|
|-13b-13b-13b-13b-12b--13b-13b-13b-13b-12b--13b-13b-13b-13b-12b--------|
|----------------------------------------------------------------------|
|----------------------------------------------------------------------|
|----------------------------------------------------------------------|
|----------------------------------------------------------------------|

|----------------------------------------------------------------------|
|-15b-15b-15b-15b-14b--13b-13b-13b-13b-12b--13b-13b-13b-13b-12b--------|
|----------------------------------------------------------------------|
|----------------------------------------------------------------------|
|----------------------------------------------------------------------|
|----------------------------------------------------------------------|

|----------------------------------------------------------------------|
|-15b-15b-15b-15b-14b--19b-19b-19b-19b-18b-18/20/7---------------------|
|----------------------------------------------------------------------|
|----------------------------------------------------------------------|
|----------------------------------------------------------------------|
|----------------------------------------------------------------------|
The Solo Is Mostly Wrong But It Sounds Right Don't Forget To Slide From 18 To 20 Then 
to 7 Quickly And A Wah Pedal May Help

After Solo
|-----------------------|
|-----------------------|
|-----------------------|
|-----------------------|
|-----------------------|
|3-3-3-3-3-3-4-4-4-1-1-1|

Outro
|---------------------|
|---------------------|
|---------------------|
|---------------------|
|3-3-0-3-3-4-4-0-0-1-2|
|3-3-0-3-3-4-4-0-0-1-2| 16 Times


|-----|
|-----|
|-----|
|-----|
|3///0|
|3///0|
Slide Down
            
Submit corrections

comments powered by Disqus
↑ Back to top | Damageplan Tabs for Explode. Lyrics for acoustic guitar and electric guitar. Tablatures and chords are parodies/interpretations of the original songs. You may use it for private study, scholarship, research or language learning purposes only