» » »

Caged In A Rage Tabs (ver.2)

Artists:  A B C D E F G H I J K L M N O P Q R S T U V W X Y Z # 

Caged In A Rage Tabs (ver.2)

Damageplan
Rating:
0/5 (0 votes)

Hard to play? Try these video lessons and learn fast.
                this is my version of caged in rage, it took me a lil while to get it, susin
dimebags tuning was the key, c# standerd plus 40 cents,c# f# b e g# c#  how
dimebag got to addin 40 cents is beyond me, but its majic|,and he played a lotv
his song in this tuning,    long live dimebag, our brother in metal!!!
e-----------------------------------------------------------------------|
B|----------------------------------------------------------------------|
G|---------------------------------------------4------------------------|
D|-x--x--x--x----4---x---4---4---x----4----4---4----0---4----4---0---0--|
A|-x--x--x--x----4---x---4---2---x----4----4---2---0---4----4---2---0---|
E|-x--x--x--x----2---x---2---3---x----2----2---2----0---2----2---3---0--|

e|---------------------------------------------------------------------------|
B|---------------------------------------------------------------------------|
G|---------------------------------------------------------------------------|
D|---------------------i think-----------------------------------------------|
A|------------------------3--------------------------------------------------|
E|-2-----4----2----4------------4------2----4-------------2----4----2-----4--|

e|----------------------------------------------------------------------------|
B|----------------------------------------------------------------------------|
G|----------------------twice------------then the-----------------------------|
D|----------------------------------------------------------------------------|
A|-----3----------------------------------------------------------3-----------|
E|-----------4------4------------------------------2---4---2---4------2----4--|

e|---------------------------------------------------------------|
B|---------------------------------------------------------------|
G|---------------------------------------------------------------|
D|-----------4x----then----------------------2---3----------etc--|
A|-----------------------------------2---4-----------------------|
E|--4---2----------------2---4--2---4----------------------------|

e|-chorus----------------------------------------------------------------------------|
B|-----------------------------------------------------------------------------------|
G|-----------------------------------------------------------------------------------|
D|----------------------------------------5----3-------------------------------------|
A|--------------------3------------3----------------5---3-------------3--------------|
E|-----------3----5---------5--------------------------------3---5-------------------|

e|----------------------------------------------------------|
B|----------------------------------------------------------|
G|----------------------------------------------------------|
D|------------3*---ph------------------back to verse---etc--|
A|--------3-------------------------------------------------|
E|---5------------------------------------------------------|

e|bridge bit-----------------------------------------------------|
B|---------------------------------------------------------------|
G|---------------------------------------------------------------|
D|----------------------------------------7----5-------------2x--|
A|--------------------------5--------5-------------7---5---------|
E|---key change----5---7---------7-------------------------------|


thats about it,should be easy to suss the rest
as for the lead,just listen an follow your heart thats what dime would v done
            
Hard to play? Try these video lessons and learn fast. | Correct




comments powered by Disqus
↑ Back to top | Tablatures and chords are parodies/interpretations of the original songs. You may use it for private study, scholarship, research or language learning purposes only