>
 >
Walk Blind And Burn In Every Step

Walk Blind And Burn In Every Step Guitar Tabs

Damaged - Walk Blind And Burn In Every Step chords, tabs, tablatures, lyrics

Guitar lessons | Add/correct | Request | Top 50 tabs Artists:  A B C D E F G H I J K L M N O P Q R S T U V W X Y Z 0-9

Walk Blind And Burn In Every Step Guitar Tabs – Damaged

CD, Sheet music, Poster

Do you like Walk Blind And Burn In Every Step? Share with your friends now
Tabs

================================================================================
         Title : Walk blind and burn in every step
        Artist : Damaged
         Album : Do not Spit
================================================================================


Tune down 1 1/2 steps, then the low Db to B (B,Gb,B,E,Ab,Db)

   Intro
1||-----------------|-------------------|-----------------|-----------------||
2||-----------------|--------------A.H--|-----------------|-----------------||
3||-----------------|-------------------|-----------------|-------------7---||
4||-----------------|-------------<12~>-|-----------------|-------------7---||
5||-0-0-0-0-0-0-0---|-0-0-0-0-0-0-------|-0-0-0-0-0-0-0---|-0-0-0-0-0-0-----||
6||-0-0-0-0-0-0-0---|-0-0-0-0-0-0-------|-0-0-0-0-0-0-0---|-0-0-0-0-0-0-----||


1||--------------------|------------------|---------------------|------------------||
2||--------------------|------------------|---------------------|------------------||
3||--------------------|------------------|------------9/10\9-8-|------------------||
4||-----6/7------------|-----6/7--------5-|-----6/7-------------|-----6/7--------5-||
5||-0--04/56--02/3\2-1-|-0--04/56--030503-|-0--04/56--07/-8\7-6-|-0--04/56--030503-||
6||-0--0---6--02/3\2-1-|-0--0---6--03050--|-0--0---6--0---------|-0--0---6--03050--||


1||-----------------|---------------------|-----------------|--------------------||
2||-----------------|---------------------|-----------------|--------------------||
3||-----------------|---------14-14-14-14-|-----------------|---------13/14\13---||
4||-----------------|---------12-12-12-12-|-----------------|---------11/12\11---||
5||---------6-6-----|---------------------|---------6-6-----|--------------------||
6||-0-0-0-0-----0-0-|-0-0-0-0-------------|-0-0-0-0-----0-0-|-0-0-0-0------------||


1||------------------|---------------------|------------------|--------------------||
2||------------------|---------------------|------------------|--------------------||
3||------------------|---------14-14-14-14-|------------------|---------13/14\13---||
4||------------------|---------12-12-12-12-|------------------|---------11/12\11---||
5||---------6666-----|---------------------|---------6666-----|--------------------||
6||-00000000----0000-|-00000000------------|-00000000----0000-|-00000000-----------||


1||-----------------|-----------------||------------------|-----------------||
2||-----------------|-----------------||------------------|-----------------||
3||-----------------|-----------------||------------------|---------2---2---||
4||-----------------|-----------------||-0000006633330000-|-006633330---0---||
5||-0---------------|-0-----------0---||------------------|-----------------||
6||-0---0-0-0-6-3-0-|-0---0-6-3---0---||------------------|-----------------||

                                        Solo
1||-----------------|-----------------||-----------------|-----------------||
2||-----------------|-----------------||-----------------|-----------------||
3||-----------------|-----------------||-----------------|---------7/8-8\5-||
4||-----------------|-----------------||-----------------|-----------------||
5||-6---------------|-3-----3-----3---||-0---1-0---5-6-5-|-0---1-0-5/6-6\3-||
6||-6---0-0-0-6-3-0-|-3---0-3---0-3---||-0---1-0---5-6-5-|-0---1-0---------||


1||-----------------|-----------------||-----||
2||-----------------|-----------------||-----||
3||-----------------|-----------------||-----||
4||-----------------|-----------------||-----||
5||-1-0---0-1---0-1-|---0-1-0-1-0-1-3-||-1-0-||
6||-1-0---0-1---0-1-|---0-1-0-1-0-1-3-||-1-0-||





Comments


Popular Damaged tabs & chords
After World Obliteration Tabs
Don't Spit Tabs
Dreggs Tabs
Dust Tabs
Nails Tabs
Open Arms Tabs
Resurrect Tabs
Slow Tabs
The Travellin' Manic Tabs
Ultramild Tabs


Song lyrics



↑ Back to top | Tablatures and chords are parodies/interpretations of the original songs. You may use it for private study, scholarship, research or language learning purposes only
© 2014 AZChords.com Contact us | Privacy policy | DMCA | Add/correct tabs | Request tabs | Top 50 tabs