» » »

My Grain Tabs (ver.1)

Artists:  A B C D E F G H I J K L M N O P Q R S T U V W X Y Z # 

My Grain Tabs (ver.1)

Damaged
Rating:
0/5 (0 votes)

Hard to play? Try these video lessons and learn fast.
                
================================================================================
         Title : My Grain
        Artist : Damaged
         Album : Do not Spit
================================================================================


Tune down 1 1/2 steps, then the low Db to B (B,Gb,B,E,Ab,Db)

   Main Riff
1||-------------------------|-------------|-------------------------|-------------||
2||-------------------------|-------------|-------------------------|-------------||
3||-------------------------|-------------|-------------------------|-------------||
4||-3-------3-------3-------|-3/5-5/6-6\5-|-5-------5-------5-------|-5/6-6\5-5\3-||
5||-3---3-3-3---3-3-3---3-3-|-3/5-5/6-6\5-|-5---5-5-5---5-5-5---5-5-|-5/6-6\5-5\3-||
6||-----3-3-----3-3-----3-3-|-------------|-----5-5-----5-5-----5-5-|-------------||

   Second Guitar
1||-------------------|------------------|-------------------|------------------||
2||-------------------|------------------|-------------------|------------------||
3||-------------------|------------------|-------------------|------------------||
4||------10-----------|------------------|-------12----------|------------------||
5||-8-----------8-----|-8/10-10/11-11\10-|-10----------10----|-10/11-11\10-10\8-||
6||-------------------|------------------|-------------------|------------------||

   End part
1||-----------------|-----------------|------||
2||-----------------|-----------------|------||
3||-----------------|-----------------|------||
4||-3-------3-------|-1-------1---1---|-0----||
5||-3---3-3-3---3-3-|-1---1-1-1---1---|-0----||
6||-----3-3-----3-3-|-----1-1---------|-0----||
            
Hard to play? Try these video lessons and learn fast. | Correct




comments powered by Disqus
↑ Back to top | Tablatures and chords are parodies/interpretations of the original songs. You may use it for private study, scholarship, research or language learning purposes only