» » »

Damaged, Dreggs Tabs (ver.1)

Artists:  A B C D E F G H I J K L M N O P Q R S T U V W X Y Z # 

Dreggs Tabs (ver.1)

Damaged Tabs
 Rating:
4/5 (4 votes)
Dreggs lessons Tabs too difficult? Try these video lessons and learn fast
1
                
================================================================================
         Title : Dreggs
        Artist : Damaged
         Album : Do not Spit
================================================================================


Tune down 1 1/2 steps (Db,Gb,B,E,Ab,Db)

   Double pick notes
1||-----------------||---------||-------------------|-----------------||
2||-----------------||---------||-------------------|-----------------||
3||-----------------||---------||-------------------|-----------------||
4||-----------------||---------||-------------------|-----------------||
5||-3-5-4-5-7-5-4-5-||-3-3-3-3-||-------------------|---------3-3-3-3-||
6||-1-3-2-3-5-3-2-3-||-1-1-1-1-||-0000000000/888777-|-000000001-1-1-1-||

   Slow bends
1||-----------------|-----------------||-----------------|-----------------||
2||-----------------|-----------------||-----------------|-----------------||
3||-----------------|-----------------||-----------------|-----------------||
4||-----------------|-----------------||-2---3-----------|-----------------||
5||-----------------|---------7-7-4-4-||-2---3---3---4---|-1---2---------5-||
6||-00003^--00003^--|-00003^--5-5-2-2-||---------3---4---|-1---2---2320233-||


1||------------------|-----------------||------|-------||----------------------|
2||------------------|-----------------||------|-------||----------------------|
3||------------------|-----------------||------|-------||----------------------|
4||-2---3------------|-----------------||-2----|---3---||----------------------|
5||-2---3---3---4----|-1---2---------5-||-2----|---3---||-----2h3p2-----2h3p2--|
6||---00--003-004-00-|-1-002-002320233-||-0----|---1---||-0000-----00000-----0-|

                                             1st time             2nd time
1||------------------|----------------------|-------------------||-----------------------||
2||------------------|----------------------|-------------------||-----------------------||
3||------------------|----------------------|-------------------||-----------------------||
4||------------------|----------------------|-------------------||-----------10-10-10-10-||
5||-----2h3p2-3------|-----2h3p2-----2h3p2--|-----2h3p2-3-3-3-3-||-----2h3p2--8--8--8--8-||
6||-0000-----01------|-0000-----00000-----0-|-0000-----01-1-1-1-||-0000-----0------------||


1||-----------------|-----------------|-----------------|---------------------||
2||-----------------|-----------------|-----------------|---------------------||
3||-----------------|-----------------|-----------------|---------------------||
4||-----4/5-----4/5-|-----4/5---------|-----4/5-----4/5-|-----4/5-10-11-12-10-||
5||-----2/3-----2/3-|-----2/3-3-4-5-3-|-----2/3-----2/3-|-----2/3--8--9-10--8-||
6||-0-0-----0-0-----|-0-0-----1-2-3-1-|-0-0-----0-0-----|-0-0-----------------||
            
Submit corrections

comments powered by Disqus
↑ Back to top | Damaged Tabs for Dreggs. Lyrics for acoustic guitar and electric guitar. 1 Tablatures and chords are parodies/interpretations of the original songs. You may use it for private study, scholarship, research or language learning purposes only