» » »

Dallas Green, When She Tabs (ver.1)

Artists:  A B C D E F G H I J K L M N O P Q R S T U V W X Y Z # 

When She Tabs (ver.1)

Dallas Green Tabs
Rating:
0/5 (0 votes)
When She lessons Tabs too difficult? Try these video lessons and learn fast
                ---0------0-----0-----0------------------------------------|
---0------0-----0-----0------------------------------------|
---0------0-----0-----0------------------------------------|
---2------4-----5-----5------------------------------------|
---2------3-----5-----4------------------------------------|
---0------0-----0-----0------------------------------------|

-----0---------2-----0---------2-----x-----------------------|
-----1—h3------0-----1---h3----0-----0-----------------------|
-----0---------0-----0---------0-----0-----------------------|repeat
-----2---------2-----2---------2-----2-----------------------|
-----3---------2-----3---------2-----0-----------------------|
-----3---------0-----3---------0-----1-----------------------|

other part
-----0--------0-----------------------0----0--------------------------|
-----1h3------0-----------------------1----3--------------------------|
-----0--------2---s-4---4-------------0----2--------------------------|
-----2--------2---s-4-s-5----(X3)-----2----0--------------------------|
-----3--------0-----------------------3----0--------------------------|
-----3--------0-----------------------3-------------------------------|
            

comments powered by Disqus
↑ Back to top | Dallas Green Tabs for When She. Lyrics for acoustic guitar and electric guitar. Tablatures and chords are parodies/interpretations of the original songs. You may use it for private study, scholarship, research or language learning purposes only