>
 >
Caseys Song

Caseys Song Guitar Tabs

Dallas Green - Caseys Song chords, tabs, tablatures, lyrics

Guitar lessons | Add/correct | Request | Top 50 tabs Artists:  A B C D E F G H I J K L M N O P Q R S T U V W X Y Z 0-9

Caseys Song Guitar Tabs – Dallas Green

CD, Sheet music, Poster

Do you like Caseys Song? Share with your friends now
Tabs
Casey's Song
Dallas Green/City and Colour

First lets start with the tuning:

- start with: E,A,D,G,B,e
- press 4th fret on the E and tune with the A
- this turns A into Ab or G#
- press 3rd fret on A(G#)string to tune with the D
- this turns D into B
- press 7th fret on D(B)string to tune with the G
- this turns G into F# or Gb
- press 5th fret on G(F#)string to tune with the B
- they should sound the same
- press 4th fret on B string to tune with the e
- this turns e into eb or F#
- you are left with: E,G#,B,F#,B,f#
- put capo on 2nd fret

h= harmonic

Intro/Verse

F#|-12h---------------0-------0-------0-------0--------------|
B |-12h---------------0-------0-------0-------0--------------|
F#|-12h-----------5-4-5-4-5-4-5-4-5-4-5-4-5-4-5-4------------|
B |-12h-----------0-0-0-0-0-0-0-0-0-0-0-0-0-0-0-0------------|
G#|-12h---------- 0-0-0-0-0-0-0-0-0-0-0-0-0-0-0-0------------|
E |-12h-----------4-4-4-4-4-4-4-4-4-4-4-4-4-4-4-4------------|

contd.

F#|-------0-------0-------0-------0--------|
B |-------0-------0-------0-------0--------|
F#|---5-4-5-4-5-4-5-4-5-4-5-4-5-4-5-4------|
B |---0-0-0-0-0-0-0-0-0-0-0-0-0-0-0-0------|
G#|---0-0-0-0-0-0-0-0-0-0-0-0-0-0-0-0------|
E |---0-0-0-0-0-0-0-0-0-0-0-0-0-0-0-0------|


Chorus

F#|----------------------------------------------|
B |----------------------------------------------|
F#|--5---4-4-4-4-4-4-4------5---4-4-4-4-4-4-4----|   *you can play the e and
B |--0---0-0-0-0-0-0-0------0---0-0-0-0-0-0-0----|    b strings if you want.
G#|--0---0-0-0-0-0-0-0------0---0-0-0-0-0-0-0----|    I usually play the b.
E |--7---4-4-4-4-4-4-4------7---4-4-4-4-4-4-4----|

F#|----------------------------------------------|
B |----------------------------------------------|
F#|--7---7-7-7-5-5-5-5----7---7-7-7-5-5-5-5------|
B |--0---0-0-0-0-0-0-0----0---0-0-0-0-0-0-0------|
G#|--0---0-0-0-0-0-0-0----0---0-0-0-0-0-0-0------|
E |--7---0-0-0-0-0-0-0----7---0-0-0-0-0-0-0------|


Bridge - play E/G#/B strings from the intro/verse but palm muted


So thats it////plz rate honestly this took me a bit of time thanks !!!!





Comments


Popular Dallas Green tabs & chords
Save Your Scissors Chords
The Grace Chords
Comin Home Tabs
Like Knives Tabs
Off By Heart Tabs
Sam Malone Tabs
So Low Tabs
Sometimes I Wish Tabs
The Girl Intro Tabs
The Grace Tabs


Song lyrics



↑ Back to top | Tablatures and chords are parodies/interpretations of the original songs. You may use it for private study, scholarship, research or language learning purposes only
© 2014 AZChords.com Contact us | Privacy policy | DMCA | Add/correct tabs | Request tabs | Top 50 tabs