>
 >
Made In Hell

Made In Hell Guitar Tabs

Dalby Ashley - Made In Hell chords, tabs, tablatures, lyrics

Guitar lessons | Add/correct | Request | Top 50 tabs Artists:  A B C D E F G H I J K L M N O P Q R S T U V W X Y Z 0-9

Made In Hell Guitar Tabs – Dalby Ashley

CD, Sheet music, Poster

Do you like Made In Hell? Share with your friends now
Tabs

Intro

[Guitar 1]  [0:00]
9--12--7---------------9--12--7---10--9--7---------------------------
9--12--7---------------9--12--7---10--9--7---------------------------
7--10--5---0h3-53-7---7--10--5----8--7--5---------------------------
-----------0h3---------0---------------------------------------------

[Guitar II]  [0:09]
--7-9-8-7-------|---7-9-8-7-------|----------------------------------
--7-9-8-7-10h12-|---7-9-8-7-10h12-|----------------------------------
--8-------10h12-|---8-------10h12-|----------------------------------
----------------|-----------------|----------------------------------
----------------|-----------------|----------------------------------
----------------|-----------------|----------------------------------

[Guitar II]  [0:18]
|-17------17------17------17------17---20--19--17-15h17p15-
|---17-20^--17-20^--17-20^--17-20^--17---17--17------------
|----------------------------------------------------------
|----------------------------------------------------------
|----------------------------------------------------------
|----------------------------------------------------------

|---15------------------------------------12---12---17-----
|-17--17-15h17p15--13h15p13-12------------15^----x--20^----
|----------------16------------14~~---/----------x--------
|----------------------------------------------------------
|----------------------------------------------------------
|----------------------------------------------------------

|-20^-20-19--20-22-22^^^22------------20------17-----------
|--------------------------20^-20^-20^--20^-17--20---------
|----------------------------------------------------------
|----------------------------------------------------------
|----------------------------------------------------------
|----------------------------------------------------------

|----------------------------------------------------------
|-15^p13-13-12---12-12-------------------------------------
|--------------14-----14-12-14-14-12---12------------------
|------------------------------------14--14-12---14-12-14--
|----------------------------------------------14----------
|----------------------------------------------------------

D5		D5		F5		F5
Gm		Gm		Bm		B
Metal came from foundries where the midlands sound unfurled
D5		D5		F5		F5
The bullring was a lonely place of concrete towers and steel		(FILL TWO)
Gm		Gm		Bm		B
The coal mines and the industries were all I had to fell.

A5		A5		C5		C5
Something inside took hold of me, I really didn't know		(FILL TWO)
Dm		Dm		Fm		F
But overtime it came to be, I knew which way to go		(FILL THREE)
A5		A5		C5		C5
I drove around in search of what would make this all come true	(FILL FOUR)
Dm		Dm		Fm		F

F#5	 	F#5	G5    F#5  Em   F#5
Hell		we're born to raise some hell
F#5	 	F#5	G5    F#5  Em   F#5
Hell		we're gonna raise some hell

     Eb5	Csus4		Ebsus4	         Bb5	    C/G
The stage and the lights and the amps are ablaze watch them burn
Eb5		Csus4			Ebsus4	 Bb5

Solo 2:
|-------------------------12-----------------15----15------
|-10----12----10--12--13--15^p12-15^-15--/17----17---------
|-12^---14^---12^-14^-15^----------------------------------
|----------------------------------------------------------
|----------------------------------------------------------
|----------------------------------------------------------

|-17------17------17------17------17---20--19--17-15h17p15-
|---17-20^--17-20^--17-20^--17-20^--17---17--17------------
|----------------------------------------------------------
|----------------------------------------------------------
|----------------------------------------------------------
|----------------------------------------------------------

|---15------------------------------------12---12---17-----
|-17--17-15h17p15--13h15p13-12------------15^----x--20^----
|----------------16------------14~~---/----------x--------
|----------------------------------------------------------
|----------------------------------------------------------
|----------------------------------------------------------

|-20^-20-19--20-22-22^^^22------------20------17-----------
|--------------------------20^-20^-20^--20^-17--20---------
|----------------------------------------------------------
|----------------------------------------------------------
|----------------------------------------------------------
|----------------------------------------------------------

|---------------------12--13--12-----12--13--12------13------
|------15^p13-15p13---15^-16^-15^----15^-16^-15^-----16^-----
|-12-14------------14-----------------------------/-/--------
|------------------------------------------------------------
|------------------------------------------------------------
|------------------------------------------------------------

|-12--15--14--13-------
|-15^-18^-17^-16^------
|----------------------
|----------------------
|----------------------
|----------------------

Solo 3:
|---------------------------------------15-----------------
|-------------------------8----------//----18p15-18^-------
|-------------------3~-/7------75--//---------------------
|-----------------3----------------------------------------
|-------------3-5------------------------------------------
|-1-3-3-3-1-3----------------------------------------------

|-15-----------15-------18p15--18p15---------18-20-20^-----
|----18p15-18^----18p15------18-----18-18/20---------------
|----------------------------------------------------------
|----------------------------------------------------------
|----------------------------------------------------------
|----------------------------------------------------------

|-20^20^20^20^-20p18---------------------------------------
|--------------------20^--------------------------------
|----------------------------------------------------------
|----------------------------------------------------------
|----------------------------------------------------------
|----------------------------------------------------------

|----------------------------------------------------------
|----------------------------------8-----------------------
|-----5~-------7^-5------7^-7^---7^--7^-7-5-7--575757------
|-5h7------5-7-------5-7-----------------------------7-5-7-
|----------------------------------------------------------
|----------------------------------------------------------

[Fill 1]
|----------------------------------------------------------
|----------------------------------------------------------
|-----4---5-------------------4----------------------------
|---2---2-----------------5--------------------------------
|-0---------------------5---5------------ over and over----
|---------------------3------------------------------------

[Fill 2]
|---------5-----5-------0---------------5------------------
|-------5---5---------1---1-----------5---5---6------------
|-----5-------5-----2-------2-------7-------7---7----------
|---7-------------3-----------3-2-0----------------8-------
|-0------------------------------------------------8-------
|--------------------------------------------------6-------

[Fill 3]
|-----------------0---------|---------------------------------
|---------------0---0-8-----|---------------------------------
|-------------5---------5---|-----9--7-------------4/54-----
|-----5h7---7---------------|-------------9---------------5---
|-5h7-----0-----------------|-------------------------------0-
|---------------------------|---------------------------------

[Fill 4]
|--------------------0------|------------0-----------------
|----------------0----------|----------0-----0-------------
|--------------5---5--------|--------2-----2---------------
|------------7--------------|------0-----------------------
|---------0-----------------|----2-------------------------
|---------------------------|------------------------------

                                                //\              
 __________________________                        \             
|                                             .__=.\        
|                            ____          ,' -(@)-<)          
|                                ______.,(_______/_:           
|                              ______//  # /# # || : ____       
|                                =''=//|_|##(O)##|| `./---.      
|_______________________ /   / ,`--'./# ======='//,  //. .      
                 _______  _(_:_@O__)_///<_>O////    ( (@O ) )    
                    _____ _____________/======'O'      `-' /     
                             __`-----'__________________`---'___





Comments


Popular Dalby Ashley tabs & chords
Cloak And Dagger Tabs
Crimson Pimpernel Tabs
Danger Zone Tabs
Hard Life To Love Tabs
Heartbreak Tabs
Hopelessness 1 And Tabs
Incefficent Star Tabs
Nightmare Tabs
No Stranger To Love Tabs
Obsolete Combatant Tabs


Song lyrics



↑ Back to top | Tablatures and chords are parodies/interpretations of the original songs. You may use it for private study, scholarship, research or language learning purposes only
© 2014 AZChords.com Contact us | Privacy policy | DMCA | Add/correct tabs | Request tabs | Top 50 tabs