» » »

Revelation Tabs (ver.1)

Artists:  A B C D E F G H I J K L M N O P Q R S T U V W X Y Z # 

Revelation Tabs (ver.1)

Dakona
Rating:
5/5 (1 vote)

Hard to play? Try these video lessons and learn fast.
                Dakona- Revelation

TUNING: They probably play it in standard, but i'm using Drop D. If you're playing 
just move all the
notes on the E string down 2 frets.

I'm not tabbing out the rhythms... they're easy enough to get.


Intro/Verse

e|----------------------------|
B|----------------------------|
G|----------------------------|
D|-(x-x)--9-/-4-\-6-/-2-------|
A|-(x-x)--9-/-4-\-6-/-2-------|
D|-(x-x)--9-/-4-\-6-/-2-------|  repeat til pre-chorus

*Only play bracketed part the first time

Pre-chorus
e|------|
B|------|
G|--11--|
D|--11--|
A|---9--|
D|------|  repeat til Chorus

Chorus
e|-------------------|
B|-------------------|
G|-------------------|
D|-9---4---2---6---4-|
A|-9---4---2---6---4-|
D|-9---4---2---6---4-| this x2

Intro/Verse

e|----------------------------|
B|----------------------------|
G|----------------------------|
D|-(x-x)--9-/-4-\-6-/-2-------|
A|-(x-x)--9-/-4-\-6-/-2-------|
D|-(x-x)--9-/-4-\-6-/-2-------|  repeat til pre-chorus

*Only play bracketed part the first time

Pre-chorus
e|------|
B|------|
G|--11--|
D|--11--|
A|---9--|
D|------|
Listen to the recording for this rhythm, it's harder to get
repeat til just before chorus, then:

e|----------|
B|----------|
G|----------|
D|-x-x-x-x--|
A|-x-x-x-x--|
D|-x-x-x-x--|

Chorus
e|-------------------|
B|-------------------|
G|-------------------|
D|-9---4---2---6---4-|
A|-9---4---2---6---4-|
D|-9---4---2---6---4-| this x2

Bridge 1
e|-----------|
B|-----------|
G|-----------|
D|-2-----4---|
A|-2-----4---|
D|-2-----4---|


Bridge 2
He's using some effect on the solo part, i find it sounds good with the bends to make
up for the effect.
e|---------------------------------------------------------------------------|
B|---------------------------------------------------------------------------|
G|-------------------4--8--6------------------------------4--6--11---12^-----|
D|-6--4--2-xx-2-2-------------xx-2-2---6--4--2-xx-2-2--------------------11--|
A|-6--4--2-xx-2-2-------------xx-2-2---6--4--2-xx-2-2------------------------|
D|-6--4--2-xx-2-2-------------xx-2-2---6--4--2-xx-2-2------------------------|

e|--------------------------------------------------|
B|-------------------------------------------19^----|
G|-16^~16^~16^~----15^--19^--18^~---15^--16^--------|
D|--------------------------------------------------|
A|--------------------------------------------------|
D|--------------------------------------------------|


Chorus
e|-------------------|
B|-------------------|
G|-------------------|
D|-9---4---2---6---4-|
A|-9---4---2---6---4-|
D|-9---4---2---6---4-| this x2

Bridge 1
e|-----------|
B|-----------|
G|-----------|
D|-2-----4---|
A|-2-----4---|
D|-2-----4---|

Chorus
e|-------------------|
B|-------------------|
G|-------------------|
D|-9---4---2---6---4-|
A|-9---4---2---6---4-|
D|-9---4---2---6---4-| this x2

End on
e|-------|
B|-------|
G|-------|
D|-9~/2~-
A|-9~/2~-
D|-9~/2~-
            
Hard to play? Try these video lessons and learn fast. | Correct




comments powered by Disqus
↑ Back to top | Tablatures and chords are parodies/interpretations of the original songs. You may use it for private study, scholarship, research or language learning purposes only