>
 >
In God's Name

In God's Name Guitar Tabs

Dakona - In God's Name chords, tabs, tablatures, lyrics

Guitar lessons | Add/correct | Request | Top 50 tabs Artists:  A B C D E F G H I J K L M N O P Q R S T U V W X Y Z 0-9

In God's Name Guitar Tabs – Dakona

CD, Sheet music, Poster

Do you like In God's Name? Share with your friends now
Tabs
Drop your guitar 1\5 step down (Eb Bb Gb Db Ab Eb) (D# A# F# C# G# D#)

[INTRO]
E||-----------5-333-3-000-------------5-333-5753-------------5-333-3-000----03573---035753-|
B||--8-----6--5--------------8-----6--5-------------8-----6--5-----------------------------|
G||---9-------6---------------9-------6--------------9-------6-----------------------------|
D||-9-----7---7-------------9-----7---7------------9-----7---7-------------5-------7-------|
A||7-----5----7------------7-----5----7-----------7-----5----7------------3-------5--------|
E||---------5-5---------------------5-5--------------------5-5-----------------------------|


[VERSE]
    D#7             C#7     G#7
E||-7---------------5-------5-------------------------|
B||-8---------------6-------5-------------------------|
G||-9---------------7-------6-------------------------|
D||-9---------------7-------7-------------------------|repeat 4x 
A||-7---------------5-------7-------------------------|
E||-------------------------5-------------------------|
Hear the crack of a bullet....


[VERSE]
    D#7             C#7     G#7
E||-7---------------5-------5-------------------------|
B||-8---------------6-------5-------------------------|
G||-9---------------7-------6-------------------------|
D||-9---------------7-------7-------------------------|repeat 4x 
A||-7---------------5-------7-------------------------|
E||-------------------------5-------------------------|
Ever never gone now how... 


[CHORES]
    F#7    C#7    G#7    C#7      F#7    C#7    G#7
E||-3------5------5------5------|-3------5------5-----|
B||-3------6------5------6------|-3------6------5-----|
G||-4------7------6------7------|-4------7------6-----|
D||-5------7------7------7------|-5------7------7-----|
A||-5------5------7------5------|-5------5------7-----|
E||-3-------------5-------------|-3-------------5-----|
And itís all...                    and itís all...


[VERSE]
    D#7             C#7     G#7
E||-7---------------5-------5-------------------------|
B||-8---------------6-------5-------------------------|
G||-9---------------7-------6-------------------------|
D||-9---------------7-------7-------------------------|repeat 4x 
A||-7---------------5-------7-------------------------|
E||-------------------------5-------------------------|
See the crosses burning...


[CHORES]
    F#7    C#7    G#7    C#7      F#7    C#7    G#7
E||-3------5------5------5------|-3------5------5-----|
B||-3------6------5------6------|-3------6------5-----|
G||-4------7------6------7------|-4------7------6-----|
D||-5------7------7------7------|-5------7------7-----|
A||-5------5------7------5------|-5------5------7-----|
E||-3-------------5-------------|-3-------------5-----|
And itís all...                    and itís all...

[OOH HOO THING]
    F#7    C#7    G#7    D#7                  F#7   C#7
E||-3------5------5------7------|           |-3-----5----|
B||-3------6------5------8------|           |-3-----6----|
G||-4------7------6------9------|after 2nd  |-4-----7----|
D||-5------7------7------9------|time play: |-5-----7----|
A||-5------5------7------7------|           |-5-----5----|
E||-3-------------5-------------|           |-3----------|
ooh hoo...

[VERSE]
E||-------------5-|
B||---8----6----5-|
G||----9--------6-|
D||--9-----7----7-|repead 4x
A||-7-----5-----7-|
E||-------------5-|
Even knows men talking...


[CHORES]
E||----------------------------------3-333--|
B||-------11-------------------5-----3------|
G||-----12-----------11---------6----4------|
D||---12-----------12--12-----7--7---5------|repeat 2x
A||-10-----------12----------7-------5------|
E||------------10-----------5--------3------|
And itís all...

[VERSE]
    F#7                  C#7
E||-3--------------------5---------------------|
B||-3--------------------6---------------------|
G||-4--------------------7---------------------|
D||-5--------------------7---------------------|repeat 3x
A||-5--------------------5---------------------|
E||-3------------------------------------------|
And we all got our ways, to justify...

[OUTRO]
E||-----------5-333-3-000-------------5-333-5753-------------5-333-3-000----03573---035753-|
B||--8-----6--5--------------8-----6--5-------------8-----6--5-----------------------------|
G||---9-------6---------------9-------6--------------9-------6-----------------------------|
D||-9-----7---7-------------9-----7---7------------9-----7---7-------------5-------7-------|
A||7-----5----7------------7-----5----7-----------7-----5----7------------3-------5--------|
E||---------5-5---------------------5-5--------------------5-5-----------------------------|

E||---
B||---
G||-4-
D||-5- last chord, strum ones 
A||-5-
E||-3-




Standard E tuning (E B G D A E) this way you van play it in standard E Tuning, but it's easier when you tune your guitar 1/5 step down


[INTRO]
E||-----------4-----------------------4------------------------4-------------------------------|
B||--7-----5--4-777-7-444----7-----7--4-777-91197-----7-----7--4-777-7-444----479117---4791197-|
G||---8-------5---------------8-------5----------------8-------5-------------------------------|
D||-8-----6---6-------------8-----6---6--------------8-----6---6-------------4--------6--------|
A||6-----4----6------------6-----4----6-------------6-----4----6------------2--------4---------|
E||---------4-4---------------------4-4----------------------4-4-------------------------------|


[VERSE]
    D#7             C#7     G#7
E||-6---------------4-------4-------------------------|
B||-7---------------5-------4-------------------------|
G||-8---------------6-------5-------------------------|
D||-8---------------6-------6-------------------------|repeat 4x 
A||-6---------------4-------6-------------------------|
E||-------------------------4-------------------------|
Hear the crack of a bullet....


[VERSE]
    D#7             C#7     G#7
E||-6---------------4-------4-------------------------|
B||-7---------------5-------4-------------------------|
G||-8---------------6-------5-------------------------|
D||-8---------------6-------6-------------------------|repeat 4x 
A||-6---------------4-------6-------------------------|
E||-------------------------4-------------------------|
Ever never gone now how... 


[CHORES]
    F#7    C#7    G#7    C#7      F#7    C#7    G#7
E||-2------4------4------4------|-2------4------4-----|
B||-2------5------4------5------|-2------5------4-----|
G||-3------6------5------6------|-3------6------5-----|
D||-4------6------6------6------|-4------6------6-----|
A||-4------4------6------4------|-4------4------6-----|
E||-2-------------4-------------|-2-------------4-----|
And itís all...                    and itís all...


[VERSE]
    D#7             C#7     G#7
E||-6---------------4-------4-------------------------|
B||-7---------------5-------4-------------------------|
G||-8---------------6-------5-------------------------|
D||-8---------------6-------6-------------------------|repeat 4x 
A||-6---------------4-------6-------------------------|
E||-------------------------4-------------------------|
See the crosses burning...


[CHORES]
    F#7    C#7    G#7    C#7      F#7    C#7    G#7
E||-2------4------4------4------|-2------4------4-----|
B||-2------5------4------5------|-2------5------4-----|
G||-3------6------5------6------|-3------6------5-----|
D||-4------6------6------6------|-4------6------6-----|
A||-4------4------6------4------|-4------4------6-----|
E||-2-------------4-------------|-2-------------4-----|
And itís all...                    and itís all...

[OOH HOO THING]
    F#7    C#7    G#7    D#7                  F#7   C#7
E||-2------4------4------6------|           |-2-----4----|
B||-2------5------4------7------|           |-2-----5----|
G||-3------6------5------8------|after 2nd  |-3-----6----|
D||-4------6------6------8------|time play: |-4-----6----|
A||-4------4------6------6------|           |-4-----4----|
E||-2-------------4-------------|           |-2----------|
ooh hoo...

[VERSE]
E||-------------4-|
B||---7-----5---4-|
G||----8--------5-|
D||--8-----6----6-|repead 4x
A||-6-----4-----6-|
E||-------------4-|
Even knows men talking...


[CHORES]
E||----------------------------------2------|
B||-------10-------------------4-----2-777--|
G||-----11-----------10---------5----3------|
D||---11-----------11--11-----6--6---4------|repeat 2x
A||--9-----------11----------6-------4------|
E||-------------9-----------4--------2------|
And itís all...

[VERSE]
    F#7                  C#7
E||-2--------------------4---------------------|
B||-2--------------------5---------------------|
G||-3--------------------6---------------------|
D||-4--------------------6---------------------|repeat 3x
A||-4--------------------4---------------------|
E||-2------------------------------------------|
And we all got our ways, to justify...

[OUTRO]
E||-----------4-----------------------4------------------------4-------------------------------|
B||--7-----5--4-777-7-444----7-----7--4-777-91197-----7-----7--4-777-7-444----479117---4791197-|
G||---8-------5---------------8-------5----------------8-------5-------------------------------|
D||-8-----6---6-------------8-----6---6--------------8-----6---6-------------4--------6--------|
A||6-----4----6------------6-----4----6-------------6-----4----6------------2--------4---------|
E||---------4-4---------------------4-4----------------------4-4-------------------------------|

E||---
B||---
G||-3-
D||-4- last chord, strum ones 
A||-4-
E||-2-





Comments


Popular Dakona tabs & chords
Perfect Change Chords
Trampoline Chords
Beautiful Thing Tabs
Good Tabs
Good (I've Got A Lot To Learn) Tabs
Good (I've Got A Lot To Learn) 1 Tabs
Revelation Tabs
Trampoline Tabs
Perfect Change Ukulele
Trampoline Ukulele


Song lyrics



↑ Back to top | Tablatures and chords are parodies/interpretations of the original songs. You may use it for private study, scholarship, research or language learning purposes only
© 2014 AZChords.com Contact us | Privacy policy | DMCA | Add/correct tabs | Request tabs | Top 50 tabs