» » »

Dakona, Good Tabs (ver.1)

Artists:  A B C D E F G H I J K L M N O P Q R S T U V W X Y Z # 

Good Tabs (ver.1)

Dakona Tabs
Rating:
0/5 (0 votes)
Good lessons Tabs too difficult? Try these video lessons and learn fast
                /….slide
~…vibreto
b….bend string
(8) Silent note

Intro x4

E ----------------------------------------------------------------------------------------------------
B ------------------2---------------7----------------------7------------------7--------------------
G -----------3----------------4----------------------6-------------------6-------------------------
D ----2/4--------------4/6--------------6---6/8----------------8/9---------------(8)------------
A-----------------------------------------------------------------------------------------------------
E-----------------------------------------------------------------------------------------------------

Verse x2

E---------------------------------------------------------------------------------------------------------
B---------------------------------------------------------------------------------------------------------
G----------------6--6--6-----3--3--3-----4--4--4---------------6--6--6----3--3--3----4----4
D----4--4--4-----6--6--6-----3--3--3-----4--4--4----4--4--4----6--6--6----3--3--3----4----4
A----4--4--4-----4--4--4-----1--1--1-----2--2--2----4--4--4----4--4--4----1--1--1----2----2
E----2--2--2----------------------------------------2--2--2--------------------------------------

Chorusx2

E---------------------------------------------------------------------------------------------------------
B---------------------------------------------------------------------------------------------------------
G---------------6--6--6-----3--3--3----4--4--4---------------6--6--6----3--3--3----4--4--4
D----4--4--4----6--6--6-----3--3--3----4--4--4----4--4--4----6--6--6----3--3--3----4--4--4
A----4--4--4----4--4--4-----1--1--1----2--2--2----4--4--4----4--4--4----1--1--1----2--2--2
E----2--2--2--------------------------------------2--2--2---------------------------------------

Pre-verse

E---------------------------------------
B--------------2------------------------
G----------3----------------------4-----
D----2/4----------4----2----------4-----
A---------------- ----------------2-----
E---------------------------------------

Verse 2

Guitar 1 x2

E---------------------------------------------------------------------------------------------------------
B---------------------------------------------------------------------------------------------------------
G----------------6--6--6-----3--3--3-----4--4--4---------------6--6--6----3--3--3----4----4
D----4--4--4-----6--6--6-----3--3--3-----4--4--4----4--4--4----6--6--6----3--3--3----4----4
A----4--4--4-----4--4--4-----1--1--1-----2--2--2----4--4--4----4--4--4----1--1--1----2----2
E----2--2--2----------------------------------------2--2--2--------------------------------------

Guitar 2 x2

E---------------------------------------------------------------------------------------------------------
B----7----7-------9b---7~----7-------------------------7-------7----9b---7~----7-----------------
G-----------------------------------------3----4---3~--------------------------------------3----4---3
D---------------------------------------------------------------------------------------------------------
A---------------------------------------------------------------------------------------------------------
E---------------------------------------------------------------------------------------------------------

That’s it for the song theres a slightly different version of the intro at the end of the song but hey I can’t do all the work for you
            

comments powered by Disqus
↑ Back to top | Dakona Tabs for Good. Lyrics for acoustic guitar and electric guitar. Tablatures and chords are parodies/interpretations of the original songs. You may use it for private study, scholarship, research or language learning purposes only