>
 >
Fatal Duel

Fatal Duel Guitar Tabs

Daisuke Ishiwatari - Fatal Duel chords, tabs, tablatures, lyrics

Guitar lessons | Add/correct | Request | Top 50 tabs Artists:  A B C D E F G H I J K L M N O P Q R S T U V W X Y Z 0-9

Fatal Duel Guitar Tabs – Daisuke Ishiwatari

CD, Sheet music, Poster

Do you like Fatal Duel? Share with your friends now
Tabs
Fatal Duel (Same Character - Normal vs EX)
Song attributed to Daisuke Ishiwatari


Gtr 1 (Db Ab Db Gb Bb Eb) - Rhythm w/ Distortion
Gtr 2 (Eb Ab Eb Gb Bb Eb) - "Alto" w/ Distortion
Gtr 3, 4 (Eb Ab Eb Gb Bb Eb) - 1st and 2nd Lead w/ Distortion


  mm = 120


  Gtr 2

  S e   S s S S S S e   S s S S S  S e   S e S S S S e.    Q
|--------------------------------|--------------------------------|
|--------------------------------|--------------------------------|
|-----------x-7-7-5--------------|--------------------------------|
|-5-----5---------------5--------|-----------------5--------------|
|---------------------------5-5-5|-6-----6---5-5-5---------5//13\\|
|--------------------------------|--------------------------------|
|
| Gtr 1
|
| S S S S S S S S S S S S S S S S  S S S S S S S S S S S S S S S S
|--------------------------------|--------------------------------|
|--------------------------------|--------------------------------|
|--------------------------------|--------------------------------|
|-5-5-5-5-5-5-5-5-5-5-5-5-5-5-5-5|-5-5-5-5-5-5-5-5-5-5-5-5-5-5-5-5|
|-5-5-5-5-5-5-5-5-5-5-5-5-5-5-5-5|-5-5-5-5-5-5-5-5-5-5-5-5-5-5-5-5|
|-5-5-5-5-5-5-5-5-5-5-5-5-5-5-5-5|-5-5-5-5-5-5-5-5-5-5-5-5-5-5-5-5|
 PM...............................................................


  S e   S s S S S S e   S s S S S  S e   S s S S S  E   s  E     E     S
|--------------------------------|--------------------------------------|
|--------------------------------|--------------------------------------|
|-----------x-7-7-5--------------|--------------------------------------|
|-5-----5---------------5--------|------------------5------8-----7-----5|
|---------------------------5-5-5|-6-----6---5-5-5----------------------|
|--------------------------------|--------------------------------------|
|
| E   S S S S S S E   S S S S S S  E   S S S S S S  E   S  S  S  S  S  S
|--------------------------------|--------------------------------------|
|--------------------------------|--------------------------------------|
|--------------------------------|--------------------------------------|
|-5---5-5-5-5-5-5-7---7-7-7-7-7-7|-8---8-8-8-8-8-8-10--10-10-10-10-10-10|
|-5---5-5-5-5-5-5-5---5-5-5-5-5-5|-6---6-6-6-6-6-6--8---8--8--8--8--8--8|
|-5---5-5-5-5-5-5----------------|--------------------------------------|
     PM..........    PM..........     PM..........     PM...............


$
    Gtr 3 (4*)

    W*                               +W*
    S e   S s S S S S e   S s S S S   S e   S s S S S E   s E   E    S
||---------------------------------|----------------------------------|
||-20------------------------------|(20)------------------------------|
||o-----------x-7-7-5--------------|------------------------S---S-----|
||o-5-----5---------------5--------|------------------5----<8>-<7>---5|
||----------------------------5-5-5|--6-----6---5-5-5-----------------|
||---------------------------------|----------------------------------|
||
||  Gtr 2
||
||  S e   S s S S S S e   S s S S S   S e   S s S S S E   s E   E    S
||---------------------------------|----------------------------------|
||---------------------------------|----------------------------------|
||o-----------x-7-7-5--------------|----------------------------------|
||o-5-----5---------------5--------|------------------5-----8---7----5|
||----------------------------5-5-5|--6-----6---5-5-5-----------------|
||---------------------------------|----------------------------------|
||
||  S S S S S S S S S S S S S S S S   S S S S S S S S S S S S S S S  S
||---------------------------------|----------------------------------|
||---------------------------------|----------------------------------|
||o--------------------------------|----------------------------------|
||o-5-5-5-5-5-5-5-5-5-5-5-5-5-5-5-5|--1-1-1-1-1-1-1-1-1-1-1-1-1-1-1--1|
||--5-5-5-5-5-5-5-5-5-5-5-5-5-5-5-5|--1-1-1-1-1-1-1-1-1-1-1-1-1-1-1--1|
||--5-5-5-5-5-5-5-5-5-5-5-5-5-5-5-5|--1-1-1-1-1-1-1-1-1-1-1-1-1-1-1--1|
   PM.................................................................


                                   1.______________________________
  S e   S s S S S S e   S s S S S  E   S E   S E   E   s E   E   S |
|--------------------------------|---------------------------------||
|--------------------------------|---------------------------------||
|-----------x-7-7-5--------------|--------------------------------o||
|-5-----5---------------5--------|-----------------5-----8---7---5o||
|---------------------------5-5-5|-6---6-8---6-8-------------------||
|--------------------------------|---------------------------------||
|
|                                  1.______________________________
| S e   S s S S S S e   S s S S S  E   S E   S E   E   s E   E   S |
|--------------------------------|---------------------------------||
|--------------------------------|---------------------------------||
|-----------x-7-7-5--------------|--------------------------------o||
|-5-----5---------------5--------|-----------------5-----8---7---5o||
|---------------------------5-5-5|-6---6-8---6-8-------------------||
|--------------------------------|---------------------------------||
|
|                                  1.______________________________
| S S S S S S S S S S S S S S S S  E   S E   S E   E   S E   E   S |
|--------------------------------|---------------------------------||
|--------------------------------|---------------------------------||
|--------------------------------|--------------------------------o||
|-5-5-5-5-5-5-5-5-5-5-5-5-5-5-5-5|-1---1-3---1-3---5---5-8---7---5o||
|-5-5-5-5-5-5-5-5-5-5-5-5-5-5-5-5|-1---1-3---1-3---5---5-8---7---5-||
|-5-5-5-5-5-5-5-5-5-5-5-5-5-5-5-5|-1---1-3---1-3---5---5-8---7---5-||
 PM..............................


  Gtr 2

  2._____________________________
  E   S E   S E   S S S E   S S S  e   S s S e   S s S s S S S S  S
|--------------------------------|---------------------------------|
|-------------------------------7|---------------------------------|
|-----------------------------5--|---------------------------------|
|-----------------5-7-8-7---8----|-----7---8-----7---8---7h8p7-----|
|-6---6-8---6-8------------------|-----------------------------9-10|
|--------------------------------|---------------------------------|
|
| 2._____________________________
| E   S E   S E   E   S E   S S S  S S S S S S S S S S S S S S S  S
|--------------------------------|---------------------------------|
|--------------------------------|---------------------------------|
|--------------------------------|---------------------------------|
|-1---1-3---1-3---8---8-7---8-7-5|-5-5-5-5-5-5-5-5-5-5-5-5-5-5-5--5|
|-1---1-3---1-3---8---8-7---8-7-5|-5-5-5-5-5-5-5-5-5-5-5-5-5-5-5--5|
|-1---1-3---1-3---8---8-7---8-7-5|-5-5-5-5-5-5-5-5-5-5-5-5-5-5-5--5|
                                  PM...............................


    Gtr 4

    h               E   E   E   E      a  E.    Q.             E.    Q
||-----------------------------------|----------------------------------------|
||-----------------11--10------11----|11b13-----------------------------------|
||o------------------------12--------|---------10-----------------------------|
||o----------------------------------|------------------------10----12--------|
||-----------------------------------|----------------------------------------|
||-----------------------------------|----------------------------------------|
||
||  Gtr 3
||
||  E.    H.                      +S     +Q       S  S  S  H               +S
||-------10----------------------(10)|--(10)-----11-10-11-10--------------(10)|
||--8--------------------------------|----------------------------------------|
||o----------------------------------|----------------------------------------|
||o----------------------------------|----------------------------------------|
||-----------------------------------|----------------------------------------|
||-----------------------------------|----------------------------------------|
||
||  S s S s S e   S s S s S S S S  S      S s S s S  e     S s S s S S S S  S
||-----------------------------------|----------------------------------------|
||-----------------------------------|----------------------------------------|
||o----------------------------------|----------------------------------------|
||o-----7---8-----7---8---7h8p7------|--------7---8--------7---8---7h8p7------|
||-10---------------------------9-10-|---10------------------------------9-10-|
||-----------------------------------|----------------------------------------|
||
||  E   S S S S S S S S S S S S S  S      E   S S S  S  S  S S S S S S S S  S
||-----------------------------------|----------------------------------------|
||-----------------------------------|----------------------------------------|
||o----------------------------------|----------------------------------------|
||o-5---5-5-5-5-5-5-5-5-5-5-5-5-5--5-|----3---3-3-3--3--3--3-3-3-3-3-3-3-3--3-|
||--5---5-5-5-5-5-5-5-5-5-5-5-5-5--5-|----3---3-3-3--3--3--3-3-3-3-3-3-3-3--3-|
||--5---5-5-5-5-5-5-5-5-5-5-5-5-5--5-|----3---3-3-3--3--3--3-3-3-3-3-3-3-3--3-|
   PM........................................................................


                                       1.__________________________________
  h               E   E   E   E     a  E.    S  S  S  S  E.    E   E   E   |
|---------------------------------|----------------------------------------||
|----------------11--10------11---|11b13----13-11-10----10------------10---||
|------------------------12-------|------------------12-----------12------o||
|---------------------------------|---------------------------12----------o||
|---------------------------------|----------------------------------------||
|---------------------------------|----------------------------------------||
|
|                                      1.__________________________________
| E.    H               E.    E     a  E.    S  S  S  S  E.    E   E   E   |
|------10-------------(10)---10---|10b11----11-10--8-----8-------------8---||
|-8-------------------------------|------------------11-----------10-------||
|---------------------------------|---------------------------10----------o||
|---------------------------------|---------------------------------------o||
|---------------------------------|----------------------------------------||
|---------------------------------|----------------------------------------||
|
|                                      1.__________________________________
| S s S s S e   S s S s S S S S  S     E   S S  S  S  S  E   S E   E   E   |
|---------------------------------|----------------------------------------||
|---------------------------------|----------------------------------------||
|---------------------------------|---------------------------------------o||
|-----7---8-----7---8---7h8p7-----|---------------------10--p7-----7--10--o||
|10---------------------------9-10|----8---8-8--8--8--8--------8-----------||
|---------------------------------|----------------------------------------||
|
|                                      1.__________________________________
| E   S S S S S S S S S S S S S  S     E   S S  S  S  S  E   S E   S S E   |
|---------------------------------|----------------------------------------||
|---------------------------------|----------------------------------------||
|---------------------------------|---------------------------------------o||
|-1---1-1-1-1-1-1-1-1-1-1-1-1-1--1|----3---3-3--3--3--3-------------------o||
|-1---1-1-1-1-1-1-1-1-1-1-1-1-1--1|----3---3-3--3--3--3--5--p0---------3---||
|-1---1-1-1-1-1-1-1-1-1-1-1-1-1--1|----3---3-3--3--3--3--------3---7p3-----||
 PM....................................................

  2._______________________________
  E   S  E   E  E   S S  S E   S  S    S e   S e   S e   S e   S s S  S
|--------------------------------10||----------------------------------|
|-------11--10---------------------||-15----16----15----16----13--13h15|
|12--12--------12--11-9-11----12---||o---------------------------------|
|-------------------------12-------||o---------------------------------|
|----------------------------------||----------------------------------|
|----------------------------------||----------------------------------|
|
| 2._______________________________
| E   S  E   E  E   S S  S E   S  S    w
|--------------------------------10||----------------------------------|
|-8---8-11--10--8--------------8---||----------------------------------|
|------------------11-9-11-7-------||o---------------------------------|
|----------------------------------||o---------------------------------|
|----------------------------------||----------------------------------|
|----------------------------------||----------------------------------|
|
| 2._______________________________
| E   S  E   E  E   S S  S E   S  S
|----------------------------------|
|----------------------------------|
|---------------------------------7|
|--------8---7--5--------------7---|
|10--10-------------9-7--9-5-------|
|----------------------------------|
|
| 2._______________________________
| E   S  E   E  S S S S  E   S E       E   S S S S S S E   S S S S S  S
|----------------------------------||----------------------------------|
|----------------------------------||----------------------------------|
|----------------------------------||o---------------------------------|
|-5---5--8---7--0-4-2-4--0-----7---||o-1---1-1-1-1-1-1/3---3-3-3-3-3--3|
|-5---5--8---7--0-4-2-4--0---0-5---||--1---1-1-1-1-1-1/3---3-3-3-3-3--3|
|-5---5--8---7--0-4-2-4--0---------||--1---1-1-1-1-1-1/3---3-3-3-3-3--3|
                                           PM.........     PM..........


  Gtr 4

  S e   S e   S s S s  S s S s S  S  S e   S e   a  S e   S  S s S s S  S
|----------------------------------|-------------------------------------|
|15----16----15--15---16--13--13h15|15----16----15/16----15-13--13--13h15|
|----------------------------------|-------------------------------------|
|----------------------------------|-------------------------------------|
|----------------------------------|-------------------------------------|
|----------------------------------|-------------------------------------|
|
| Gtr 3
|
| E.    E.    S E   S  Q.            E.    E.       Q        E   E   E
|\8-------------------10-----------|------11-------10--------------------|
|------11----10----10--------------|11---------------------------8--10---|
|---------------7------------------|------------------------10-----------|
|----------------------------------|-------------------------------------|
|----------------------------------|-------------------------------------|
|----------------------------------|-------------------------------------|
|
| E   S S S S S S Q        Q         E   S S S S    S S E    S S S S S  S
|----------------------------------|-------------------------------------|
|----------------------------------|-------------------------------------|
|----------------------------------|-------------------------------------|
|/5---5-5-5-5-5-5-5--------3-------|-1---1-1-1-1----1-1-4----4-4-4-4-4--4|
|/5---5-5-5-5-5-5-5--------3-------|-1---1-1-1-1----1-1-4----4-4-4-4-4--4|
|/5---5-5-5-5-5-5-5--------3-------|-1---1-1-1-1----1-1-4----4-4-4-4-4--4|
      PM.........                        PM............      PM..........


  1._____________________________________   2.____________________________________________
  E   S  E   S  S  S  S  S  S  Q      +S |  S  S  S  S  S  S  S  S  S  S  S  S  S  S  S  S
|-----------------------------14-----(14)||-----------------------------------------------|
|15--13-----13-------16-15-16------------||------------------13----13-15-16-15-13---------|
|-------15-----15-14--------------------o||12-14-15-12-14-15----14----------------15-14-12|
|---------------------------------------o||-----------------------------------------------|
|----------------------------------------||-----------------------------------------------|
|----------------------------------------||-----------------------------------------------|
|
| 1._____________________________________   2.____________________________________________
| E   S  E   S  S  S  S  S  S  Q      +S |  S  S  S  S  S  S  S  S  S  S  S  S  S  S  S  S
|-8---------------------------10-----(10)||-------------------8-----8-10-11-10--8---------|
|----11-10--11-10--8---------------------||-8-10-11--8-10-11----10----------------11-10--8|
|---------------------8--7--8-----------o||-----------------------------------------------|
|---------------------------------------o||-----------------------------------------------|
|----------------------------------------||-----------------------------------------------|
|----------------------------------------||-----------------------------------------------|
|
| 1._____________________________________   2.____________________________________________
| Q        Q          Q          Q       |  Q           Q           Q           Q
|----------------------------------------||-----------------------------------------------|
|----------------------------------------||-----------------------------------------------|
|---------------------------------------o||-----------------------------------------------|
|-1--------3----------5----------7------o||-1-----------3-----------5-----------7---------|
|-1--------3----------5----------7-------||-1-----------3-----------5-----------7---------|
|-1--------3----------5----------7-------||-1-----------3-----------5-----------7---------|


  E   S  E   S S  H                +S   E.    E.    E   S  S  S  Q      +S
|15--15-13-----x-13---------------(13)|------13----15----------------------|
|-----------15------------------------|16----------------------------------|
|-------------------------------------|----------------12-12-14-15-----(15)|
|-------------------------------------|------------------------------------|
|-------------------------------------|------------------------------------|
|-------------------------------------|------------------------------------|
|
| E   S  E   S S  Q.          S  S  S   E.    E.    E   S  S  S  Q      +S
|15--15-13-----x-13-------------------|------13----15----------------------|
|-----------15------------------13-15-|16----------------------------------|
|----------------------------15-------|----------------12-12-14-15-----(15)|
|-------------------------------------|------------------------------------|
|-------------------------------------|------------------------------------|
|-------------------------------------|------------------------------------|
|
| E   S  S S S S  S S S S S S S  S  S   E.    E.    E   E.       E.    E
|-------------------------------------|------------------------------------|
|-------------------------------------|------------------------------------|
|-------------------------------------|------------------------------------|
|-5---5--5-5-5-5--5-3-3-3-3-3-3--3--3-|-8-----7-----5---3--------2---------|
|-5---5--5-5-5-5--5-3-3-3-3-3-3--3--3-|-6-----5-----3---1--------0-----5---|
|-5---5--5-5-5-5--5-3-3-3-3-3-3--3--3-|--------------------------------5---|
  PM.................................


  w                                Q.          S  S  E   S  Q       +S
|--------------------------------|15----------17-15-14-----------------|
|--------------------------------|----------------------16-15------(15)|
|--------------------------------|-------------------------------------|
|--------------------------------|-------------------------------------|
|--------------------------------|-------------------------------------|
|--------------------------------|-------------------------------------|
|
| Q       Q       E.    E   E.     Q.          S  S  E   S  Q       +S
|----------------15----14--17----|15----------17-15-14-----------------|
|--------------------------------|----------------------16-15------(15)|
|12------15----------------------|-------------------------------------|
|--------------------------------|-------------------------------------|
|--------------------------------|-------------------------------------|
|--------------------------------|-------------------------------------|
|
| H..                 Q       E    S S S S S S S  S  S S S  S  Q
|--------------------------------|-------------------------------------|
|--------------------------------|-------------------------------------|
|--------------------------------|-------------------------------------|
|-1-------------------4-------7--|-8-8-8-8-8-8-8--8--4-7-4--7----------|
|-1-------------------4-------7--|-6-6-6-6-6-6-6--6--4-7-4--7-12\------|
|-1-------------------4-------7--|-------------------4-7-4--7-12\------|
                                                     PM......


  E   S  E   S S  H                +S   E.    E.    Q       S  Q      +S
|15--15-13-----x-13---------------(13)|18----20----22------20-19-----(19)|
|-----------15------------------------|----------------------------------|
|-------------------------------------|----------------------------------|
|-------------------------------------|----------------------------------|
|-------------------------------------|----------------------------------|
|-------------------------------------|----------------------------------|
|
| E   S  E   S S  Q.          S  S  S   E.    E.    Q       S  Q      +S
|15--15-13-----x-13-------------------|------13----15--------------------|
|-----------15------------------13-15-|16------------------16-15-----(15)|
|----------------------------15-------|----------------------------------|
|-------------------------------------|----------------------------------|
|-------------------------------------|----------------------------------|
|-------------------------------------|----------------------------------|
|
| E   S  S S S S  S S S S S S S  S  S   E.    E.    E   E.     E.    E
|-------------------------------------|----------------------------------|
|-------------------------------------|----------------------------------|
|-------------------------------------|----------------------------------|
|-5---5--5-5-5-5--5-3-3-3-3-3-3--3--3-|-3-----3-----3---4------4-----4---|
|-5---5--5-5-5-5--5-3-3-3-3-3-3--3--3-|-1-----3-----1---2------4-----2---|
|-5---5--5-5-5-5--5-3-3-3-3-3-3--3--3-|-------3----------------4---------|
  PM.................................


  Gtr 3,4

  Q       Q       E.    E.    E    H              +S   S  S  S  S  S  S  S
|20--------------21----------21--|22-------------(22)-22-20-18----18------|
|--------20------------22--------|-----------------------------22----22-20|
|--------------------------------|----------------------------------------|
|--------------------------------|----------------------------------------|
|--------------------------------|----------------------------------------|
|--------------------------------|----------------------------------------|
|
| H               E.    E.    E    H               S   S  S  S  Q
|--------------------------------|----------------------------------------|
|--------------------------------|----------------------------------------|
|--------------------------------|----------------------------------------|
|-5---------------6-----6-----6--|-7---------------4---7--4--7------------|
|-3---------------4-----6-----4--|-5---------------4---7--4--7-12\--------|
|-----------------------6--------|-----------------4---7--4--7-12\--------|   D.S. al Coda
                                                   PM.........


Coda

  Gtr 3,4

  W                                +W
|--------------------------------|----------------------------------|
|20------------------------------|(20)------------------------------|
|--------------------------------|----------------------------------|
|--------------------------------|----------------------------------|
|--------------------------------|----------------------------------|
|--------------------------------|----------------------------------|
|
| Gtr 2
| S e   S s S S S S e   S s S S S   S e   S s S S S E   s E   E    S
|--------------------------------|----------------------------------|
|--------------------------------|----------------------------------|
|-----------x-7-7-5--------------|----------------------------------|
|-5-----5---------------5--------|------------------5-----8---7----5|
|---------------------------5-5-5|--6-----6---5-5-5-----------------|
|--------------------------------|----------------------------------|
|
| S S S S S S S S S S S S S S S S   S S S S S S S S S S S S S S S  S
|--------------------------------|----------------------------------|
|--------------------------------|----------------------------------|
|--------------------------------|----------------------------------|
|-5-5-5-5-5-5-5-5-5-5-5-5-5-5-5-5|--5-5-5-5-5-5-5-5-5-5-5-5-5-5-5--5|
|-5-5-5-5-5-5-5-5-5-5-5-5-5-5-5-5|--5-5-5-5-5-5-5-5-5-5-5-5-5-5-5--5|
|-5-5-5-5-5-5-5-5-5-5-5-5-5-5-5-5|--5-5-5-5-5-5-5-5-5-5-5-5-5-5-5--5|
  PM................................................................


  S e   S s S S S S e   S s S S S  S e   S s S S S E   s E   E    S
|--------------------------------|---------------------------------|
|--------------------------------|---------------------------------|
|-----------x-7-7-5--------------|-----------------------S---S-----|
|-5-----5---------------5--------|-----------------5----<8>-<7>---5|
|---------------------------5-5-5|-6-----6---5-5-5-----------------|
|--------------------------------|---------------------------------|
|
| S e   S s S S S S e   S s S S S  S e   S s S S S E   s E   E    S
|--------------------------------|---------------------------------|
|--------------------------------|---------------------------------|
|-----------x-7-7-5--------------|---------------------------------|
|-5-----5---------------5--------|-----------------5-----8---7----5|
|---------------------------5-5-5|-6-----6---5-5-5-----------------|
|--------------------------------|---------------------------------|
|
| S S S S S S S S S S S S S S S S  S S S S S S S S S S S S S S S  S
|--------------------------------|---------------------------------|
|--------------------------------|---------------------------------|
|--------------------------------|---------------------------------|
|-5-5-5-5-5-5-5-5-5-5-5-5-5-5-5-5|-1-1-1-1-1-1-1-1-1-1-1-1-1-1-1--1|
|-5-5-5-5-5-5-5-5-5-5-5-5-5-5-5-5|-1-1-1-1-1-1-1-1-1-1-1-1-1-1-1--1|
|-5-5-5-5-5-5-5-5-5-5-5-5-5-5-5-5|-1-1-1-1-1-1-1-1-1-1-1-1-1-1-1--1|
  PM...............................................................


  S e   S s S S S S e   S s S S S  E   S E   S E   E   s E   E.
|--------------------------------|--------------------------------|
|--------------------------------|--------------------------------|
|-----------x-7-7-5--------------|--------------------------------|
|-5-----5---------------5--------|-----------------5-----8---7----|
|---------------------------5-5-5|-6---6-8---6-8------------------|
|--------------------------------|--------------------------------|
|
| S e   S s S S S S e   S s S S S  E   S E   S E   E   s E   E.
|--------------------------------|--------------------------------|
|--------------------------------|--------------------------------|
|-----------x-7-7-5--------------|--------------------------------|
|-5-----5---------------5--------|-----------------5-----8---7----|
|---------------------------5-5-5|-6---6-8---6-8------------------|
|--------------------------------|--------------------------------|
|
| S S S S S S S S S S S S S S S S  E   S E   S E   E   S E   E.
|--------------------------------|--------------------------------|
|--------------------------------|--------------------------------|
|--------------------------------|--------------------------------|
|-5-5-5-5-5-5-5-5-5-5-5-5-5-5-5-5|-1---1-3---1-3---5---5-8---7----|
|-5-5-5-5-5-5-5-5-5-5-5-5-5-5-5-5|-1---1-3---1-3---5---5-8---7----|
|-5-5-5-5-5-5-5-5-5-5-5-5-5-5-5-5|-1---1-3---1-3---5---5-8---7----|
  PM.............................


  E   S E   S E   E   s E   E.     E   S E   S E   E   s E   E.
|--------------------------------|--------------------------------||
|--------------------------------|--------------------------------||
|--------------------------------|--------------------------------||
|-----------------5-----8---7----|-----------------5-----8---7---\||
|-6---6-8---6-8------------------|-6---6-8---6-8------------------||
|--------------------------------|--------------------------------||
|
| E   S E   S E   E   s E   E.     E   S E   S E   E   s E   E.
|--------------------------------|--------------------------------||
|--------------------------------|--------------------------------||
|--------------------------------|--------------------------------||
|-----------------5-----8---7----|-----------------5-----8---7---\||
|-6---6-8---6-8------------------|-6---6-8---6-8------------------||
|--------------------------------|--------------------------------||
|
| E   S E   S E   E   S E   E.     E   S E   S E   E   S E   E.
|--------------------------------|--------------------------------||
|--------------------------------|--------------------------------||
|--------------------------------|--------------------------------||
|-1---1-3---1-3---5---5-8---7----|-1---1-3---1-3---5---5-8---7---\||
|-1---1-3---1-3---5---5-8---7----|-1---1-3---1-3---5---5-8---7---\||
|-1---1-3---1-3---5---5-8---7----|-1---1-3---1-3---5---5-8---7---\||

*When returning here from "D.S. al Coda", Gtr 3 and 4 play the asterisked note, then Gtr 
continues as normal and Gtr 4 stops.

======================================================================

Rhythmic notation:
T/t     = thirty-second note/rest (1/2 sixteenth note/rest)
S/s     = sixteenth note/rest
E/e     = eighth note/rest
Q/q     = quarter note/rest
H/h     = half note/rest
W/w     = whole note/rest
X./x.   = dotted "x" note/rest (3/2 rhythmic value of un-dotted note/rest)
+       = tie note => keep holding the note
/-##-\  = ##-tuplet (triplet, quadruplet, etc.)
a       = grace note ("appoggiatura")

Fingering notation:
##b&&   = bend note from ## to && (&& > ##)
&&pb##  = pre-bend note to && and release to ## (&& > ##)
h       = hammer-on
p       = pull-off
tr      = tremolo strum
~       = finger vibrato
V       = whammy bar "vibrato"
x       = muted fret (LH mute)
<##>    = harmonic -> N = Natural
                      S = Semi
                      P = Pitch
                      A = Artificial
                      T = Tapped
(##)/&& = slide up (from ##) to &&
(&&)\## = slide down (from &&) to ##
##/     = slide up from ## to "off" (usually around where fretboard meets body)
##\     = slide down from ## to "off" (usually around nut)
(##)    = tie note => keep holding the note
PM...   = palm mute (starting from "PM" until last period)





Comments


Popular Daisuke Ishiwatari tabs & chords
A Simple Life Tabs
A Simple Life 1 Tabs
Bloodstained Lineage Tabs
Blue Water Blue Sky Tabs
Blue Water Blue Sky 2 Tabs
Gale Tabs
Holy Orders Be Just Or Be Dead Tabs
No Mercy Tabs
Rebellion Ragnas Theme Tabs
Still In The Dark Tabs


Song lyrics



↑ Back to top | Tablatures and chords are parodies/interpretations of the original songs. You may use it for private study, scholarship, research or language learning purposes only
© 2014 AZChords.com Contact us | Privacy policy | DMCA | Add/correct tabs | Request tabs | Top 50 tabs