» » »

Daisuke Ishiwatari, A Simple Life Tabs (ver.2)

Artists:  A B C D E F G H I J K L M N O P Q R S T U V W X Y Z # 

A Simple Life Tabs (ver.2)

Daisuke Ishiwatari Tabs
 Rating:
4.4/5 (7 votes)
A Simple Life lessons Tabs too difficult? Try these video lessons and learn fast
1
                key
b = bend
h = hammer on
p = pull off
/ = slide to note
\ = slide away from note
pm = palm mute
() =played faster but tabed so as to provide easyer reading

Intro:

(0:00)
Guitar 1 (Lead)

e|------------------------------------|  R
B|-----8-----8---10-8-----7-8-7-------|  E
G|---7-----7---7--------7-------7-----|  P
D|-7-----7------------7-----------7---|  E
A|------------------------------------|  A
E|------------------------------------|  T

Guitar 2 (Rythem) -has more distortion-
joins at(0:06) and for those of u who don't have song it's after second repitition of lead.

e|----------------------------------|
B|-----8-------8-------7-------7----|
G|-----7-------7-------7-------7----|
D|-----7-------7-------7-------7----|
A|-0-0---0-0-0---0-0-0---0-0-0---0--|
E|----------------------------------|
_____________________________________________________________________________
Verse / Chorus
(0:24)
Guitar 1 (he starts off every verse and chorous with the first two measures then 
but he always lands on a triadd. (uses B|-7-|  for most)
                                                     G|-7-|
                                                     D|-7-|


e|--------9-9b-9------------------9b-9-----------------|
B|-----10--------10-7--------10/-------(10-10)-7-7b----|
G|-9/-----------------9-7-7\------------------------9\-|
D|-----------------------------------------------------|
A|-----------------------------------------------------|
E|-----------------------------------------------------|

e|-9b-9-------------------9\--------------9b----|
B|------(1010)-8-7\-----------8-10-8-10-9----10-|
G|------------------9-7-9-----------------------|
D|----------------------------------------------|
A|----------------------------------------------|
E|----------------------------------------------|

This is the part that changes throught verses
(something along these lines)

e|------------------------------------------------16b-14-------------------------------------------17-16-17-|
B|-----(15-15b-15-14-15-14-15-14-15b-15-14)--------------17b-17-16------------------------------------------|
G|-14\--------------------------------------16-14------------------18\-19-19b-(19-18-19-18-19b-19)----------|
D|----------------------------------------------------------------------------------------------------------|
A|----------------------------------------------------------------------------------------------------------|
E|----------------------------------------------------------------------------------------------------------|

Have Fun! :)
            
Submit corrections

comments powered by Disqus
↑ Back to top | Daisuke Ishiwatari Tabs for A Simple Life. Lyrics for acoustic guitar and electric guitar. 1 Tablatures and chords are parodies/interpretations of the original songs. You may use it for private study, scholarship, research or language learning purposes only