» » »

You Do This As A Fad, We Do This As A Lifestyle Bass tabs (ver.1)

Artists:  A B C D E F G H I J K L M N O P Q R S T U V W X Y Z # 

You Do This As A Fad, We Do This As A Lifestyle Bass tabs (ver.1)

Daggermouth
Rating:
0/5 (0 votes)

Hard to play? Try these video lessons and learn fast.
                Tuning: Eb Ab Db Gb

Intro

|-------------------------------------------------------------------------------------|
|-------------------------------------------------------------------------------------|
|-------------------------------------2--2-2-2-2-2-2-2--------------------------------|
|-4--4-4-4-4-4-4-4--2--2-2-2-2-2-2-2--------------------0-0-0-0-0-0-0-0-0-0-0-0-0-0-0-|

|-------------------------------------------------------------------------|
|-------------------------------------------------------------------------|
|-------------------------------------2--2-2-2-2-2-2-2--------------------|
|-4--4-4-4-4-4-4-4--2--2-2-2-2-2-2-2----------------------0-0-0-0-0-0-0-0-|

Verse 1

|-----------------------------------------------------------------|
|-----------------------------------------------------------------|
|-----------------------------------------------------------------|
|-4-4-4-4-4-4-4-4-4-4-4-4-4-4-4-4-2-2-2-2-2-2-2-2-2-2-2-2-2-2-2-2-|

|-----------------------------------------------------------------|
|-----------------------------------------------------------------|
|-7-7-7-7-7-7-7-7-7-7-7-7-7-7-7-7-2-2-2-2-2-2-2-2-4-4-4-4-7-7-7-7-|
|-----------------------------------------------------------------|

|-----------------------------------------------------------------|
|-----------------------------------------------------------------|
|-----------------------------------------------------------------|
|-4-4-4-4-4-4-4-4-4-4-4-4-4-4-4-4-2-2-2-2-2-2-2-2-2-2-2-2-2-2-2-2-|


|------------------------------------|
|------------------------------------|
|-------7--------7--------7----------|
|-0-0-0----0-0-0----0-0-0----0-0-2---|

Verse 2

|------------------------------------------------------------------|
|------------------------------------------------------------------|
|-----------------------2-2-2-2-2-4-4-4----------------------------|
|-4-4-4-4-4-2-2-2-0-0-0------------------4-4-4-0-0-0-0-0-0-0-0-0-0-|

|----------------------------------------------------------------------8--------8---|
|--------------------------------------------------------------------9---9----9---9-|
|-----------------------2-2-2-2-2-4-4-4-------7-7-7-7-7-7-7-7-7-7--7-------7--------|
|-4-4-4-4-4-2-2-2-0-0-0-----------------4-4-4---------------------------------------|

 Chorus (x2)

|-----------------------------------------------------------------------|
|-------------------1---2-2-2-2-2-2-2-2---------------------------------|
|-2-2-2-2-2-2-2-2-2---4-------------------------------------------------|
|---------------------------------------4-4-4-4-4-4-4-4-2-2-2-2-2-2-2-2-|

After Chorus

|---------------------------------|
|---------------------------------|
|-7-7-7-7-7-7-7-7-7-7-7-7---9-7---|
|-------------------------0-----7-|

Verse

|------------------------------------------------------------------|
|------------------------------------------------------------------|
|-----------------------2-2-2-2-2-4-4-4----------------------------|
|-4-4-4-4-4-2-2-2-0-0-0------------------4-4-4-0-0-0-0-0-0-0-0-0-0-|

|----------------------------------------------------------------------8--------8---|
|--------------------------------------------------------------------9---9----9---9-|
|-----------------------2-2-2-2-2-4-4-4-------7-7-7-7-7-7-7-7-7-7--7-------7--------|
|-4-4-4-4-4-2-2-2-0-0-0-----------------4-4-4---------------------------------------|

 Chorus (x2)

|-----------------------------------------------------------------------|
|-------------------1---2-2-2-2-2-2-2-2---------------------------------|
|-2-2-2-2-2-2-2-2-2---4-------------------------------------------------|
|---------------------------------------4-4-4-4-4-4-4-4-2-2-2-2-2-2-2-2-|

End Chorus 

|---|
|---|
|---|
|-0-|

Bridge

|------------------------------------|
|------------------------------------|
|------------------------------------|
|-2-4-2-4--2-4-2-4--2-0-2-0--2-0-2-0-|

Bridge 2

|-----------------------------|-----------------------------|
|-----------------------------|-----------------------------|
|-----------------------------|-----------------------------|
|-2-4-2-4-4-4-4-4-4-4-4-4-4-4-|-2-4-2-4-4-4-4-4-4-4-4-4-4-4-|

|-----------------------------|-----------------------------|
|-----------------------------|-----------------------------|
|-----------------------------|-----------------------------|
|-2-0-2-0-0-0-0-0-0-0-0-0-0-0-|-2-0-2-0-0-0-0-0-0-0-0-0-0-0-|

|---------------------------|
|---------------------------|
|---------------------------|
|-0-0-0-0-0-0-0-0-0-0-0-0-0-|

End (x2)

|-----------------------------------------------------------|
|-----------------------------------------------------------|
|---------------------------4-2-----------------------------|
|-2-4-4-4-4-4-4-4-4-4-4-4-4-----2-0-0-0-0-0-0-0-0-0-0-0-0-2-|

|----------------------------------------------------|
|----------------------------------------------------|
|-------------------------4-2------------------------|
|-4-4-4-4-4-4-4-4-4-4-4-4-----2-0-0-0-0-0-0--0--0--0-|

End With

|-------|
|-------|
|-------|
|-2-4-4-|
            
Hard to play? Try these video lessons and learn fast. | Correct




comments powered by Disqus
↑ Back to top | Tablatures and chords are parodies/interpretations of the original songs. You may use it for private study, scholarship, research or language learning purposes only