» » »

Daggermouth, You Can't Soar Like An Eagle, When You Hang Out With Turkeys Bass tabs (ver.1)

Artists:  A B C D E F G H I J K L M N O P Q R S T U V W X Y Z # 

You Can't Soar Like An Eagle, When You Hang Out With Turkeys Bass tabs (ver.1)

Daggermouth Tabs
 Rating:
4/5 (4 votes)
You Can't Soar Like An Eagle, When You Hang Out With Turkeys lessons Tabs too difficult? Try these video lessons and learn fast
1
                Tuning:Eb Ab Db Gb

Intro (x2)

|---------|
|-------4-|
|----4----|
|-0-------|

End On

|---|
|---|
|---|
|-0-|

Verse 1 (x2)

|-----------------------------------------------------------------------------------------|
|-2-2-2-2--2-2-2-2------------------------------2-2-2-4-4-4-------------------------------|
|-----------------------------4\2-4\2-0-0-0-0-0-------------4-4-4-4-4-6-6-6-6-6-7-7-7-7-7-|
|-------------------0-0-0-0-0-------------------------------------------------------------|

End  On

|------------------|
|-2-2-2-2--2-2-2-2-|
|------------------|
|------------------|

Chorus (x4)

|-------------1-1-1-2-2-2---------------------|
|-2-2-2-4-4-4---------------------------------|
|-------------------------2-2-2-2-2-2-0-0-0-0-|
|---------------------------------------------|

End On

|---|
|---|
|---|
|-0-|

Verse 2 (x2)

|-----------------------------------------------------------------------------------------|
|-2-2-2-2--2-2-2-2------------------------------2-2-2-4-4-4-------------------------------|
|-----------------------------4\2-4\2-0-0-0-0-0-------------4-4-4-4-4-6-6-6-6-6-7-7-7-7-7-|
|-------------------0-0-0-0-0-------------------------------------------------------------|

End  On

|------------------|
|-2-2-2-2--2-2-2-2-|
|------------------|
|------------------|

Chorus (x4)

|-------------1-1-1-2-2-2---------------------|
|-2-2-2-4-4-4---------------------------------|
|-------------------------2-2-2-2-2-2-0-0-0-0-|
|---------------------------------------------|

Bridge Intro (x1)

|-------------|
|----------4--|
|-------------|
|-0--0--0-----|

Bridge (x4)

|-----------------------------------------------------------------|
|-----------------------------------------------------------------|
|---------------------------------4-4-4-4-4-4-4-4-2-2-2-2-2-2-2-2-|
|-0-0-0-0-0-0-0-0-0-0-0-0-0-0-0-0---------------------------------|

End (x1)

|----------------|
|----------------|
|----------------|
|-0--0--0----0-0-|
            
Submit corrections

comments powered by Disqus
↑ Back to top | Daggermouth Bass for You Can't Soar Like An Eagle, When You Hang Out With Turkeys. Lyrics for acoustic guitar and electric guitar. 1 Tablatures and chords are parodies/interpretations of the original songs. You may use it for private study, scholarship, research or language learning purposes only