» » »

This Is Chase Brennerman Bass tabs (ver.1)

Artists:  A B C D E F G H I J K L M N O P Q R S T U V W X Y Z # 

This Is Chase Brennerman Bass tabs (ver.1)

Daggermouth
Rating:
0/5 (0 votes)

Hard to play? Try these video lessons and learn fast.
                Tuning: Eb Ab Db Gb

h = Hammer On
p = Pull Off
/ = Slide Up
\ = Slide Down

Part 1 (x4)

|---------------------------------------|
|---------------------------------------|
|---4-4-4-4-4--2-2-2-2-2-2-2------2/7-7-|
|----------------------------0-0--------|

Part 2 (x2)

|-------------------------------------------------|
|-------------------------------------------------|
|-7-7-7-7-7-7-7-7-7-7-7-7-6-6-6-6-6-6-6-6-6-6-6-6-|
|-------------------------------------------------|

|-------------------------------------------------|
|-------------------------------------------------|
|-4-4-4-4-4-4-2-2-2-2-2-2-------------------------|
|-------------------------2-2-2-2-2-2-4-4-4-0-0-0-|

Part 3 (x3)

|---------------------------------------|-------------------------------|
|-------------------------------6-------|-------------------------------|
|-7-7-7-7-9-9-9-7-7-7-7-7-7-7-9---9-7h9-|-2-2-2-2-4-4-4-2-2-2-4-4-4-2-2-|
|---------------------------------------|-------------------------------|

|-----|
|-----|
|-7\2-|
|-----|

Part 2 (x2)

|-------------------------------------------------|
|-------------------------------------------------|
|-7-7-7-7-7-7-7-7-7-7-7-7-6-6-6-6-6-6-6-6-6-6-6-6-|
|-------------------------------------------------|

|-------------------------------------------------|
|-------------------------------------------------|
|-4-4-4-4-4-4-2-2-2-2-2-2-------------------------|
|-------------------------2-2-2-2-2-2-4-4-4-0-0-0-|

*Guitar Break*

Part 4 (x1)

|-------------------------------------|
|-------------------------------------|
|---------6-6-6-6---------6-6-6-6-2/4-|
|-0-0-0-0---------0-0-0-0-------------|

Part 5 (x4)

|-------------------------------------------|
|-------------------------------------------|
|---------6-6-6-6-4p2h4---------6-6-6-6-2/4-|
|-0-0-0-0---------------0-0-0-0-------------|

Part 6 (x1)

|---------------------------------------|
|---------------------------------------|
|-----------------------------4---2-----|
|-0-0-0-0-0-0-0-0-0-0-0-0-0-0---0---2-4-|

|---------------------------------------------|
|---------------------------------------------|
|-7-7-7-7-7-7-7-7-7-7-7-4---2-----6-6-6-6-6-6-|
|-------------------------0---2-4-------------|

Part 7 (x3)

|---------------------------------------------|----------------------------------------------|
|---------------------------------------------|----------------------------------------------|
|-2-2-2-2-2-2-2-2-2-2h4-2-2-2-2-2-2-2-2-2-2h4-|--------------------------4-4-4-4-4-6-6-6-6-6-|
|---------------------------------------------|-0-0-0-0-0-0-0-0-0-0-0-0----------------------|

End (x1)

|-----------|
|-----------|
|-2---2-4-2-|
|-----------|
            
Hard to play? Try these video lessons and learn fast. | Correct




comments powered by Disqus
↑ Back to top | Tablatures and chords are parodies/interpretations of the original songs. You may use it for private study, scholarship, research or language learning purposes only