» » »

The Verbal Uzi. Moo You Fucking Bitches! Bass tabs (ver.1)

Artists:  A B C D E F G H I J K L M N O P Q R S T U V W X Y Z # 

The Verbal Uzi. Moo You Fucking Bitches! Bass tabs (ver.1)

Daggermouth
Rating:
0/5 (0 votes)

Hard to play? Try these video lessons and learn fast.
                Tuning: Eb Ab Db Gb

Intro (x4)

|---------------------------------------------|
|-2-4-2---------------------------------------|
|-------2-0-0-0-0-0-0-------------0-0-0-0-0-0-|
|---------------------2-2-2-2-2-2-------------|

End On (x1)

|---|
|---|
|---|
|-0-|

Verse 1 (x2)

|-------------------------------------------------------------------------|
|-4-4-4-4-4-----------2-2-2-2-2-----------4-4-4-4-4-----------------------|
|-----------4-4-4-4-4-----------0-0-0-0-0-----------4-4-4-4-4---------0-0-|
|-------------------------------------------------------------0-0-0-0-----|

Chorus (x4)

|---------------------------------------------|
|-2-4-2---------------------------------------|
|-------2-0-0-0-0-0-0-------------0-0-0-0-0-0-|
|---------------------2-2-2-2-2-2-------------|

End On (x1)

|-----------|
|-----------|
|-----------|
|-0---0-0-0-|

Verse 2 (x4)

|---------------------------------------------------------|
|-2-2-2-2-2-2-2---------------4-4-4-4-4-4-4---------------|
|---------------0-0-0-0-0-0-0---------------4-4-4-2-2-2-2-|
|---------------------------------------------------------|

Bridge (x4)

|---------------------------------------------------------|
|-2-2-2-2-2-2-2---------------4-4-4-4-4-4-4---------------|
|---------------0-0-0-0-0-0-0---------------4-4-4-2-2-2-2-|
|---------------------------------------------------------|

End (x1)

|---------------------------------------|
|---------------------------------------|
|-4-4-4-2-2-2-2-4-4-4-2-2-2-2-0---------|
|---------------------------------0-0-0-|
            
Hard to play? Try these video lessons and learn fast. | Correct




comments powered by Disqus
↑ Back to top | Tablatures and chords are parodies/interpretations of the original songs. You may use it for private study, scholarship, research or language learning purposes only