» » »

Daggermouth, Sing It Again Rookie Biatch! Tabs (ver.1)

Artists:  A B C D E F G H I J K L M N O P Q R S T U V W X Y Z # 

Sing It Again Rookie Biatch! Tabs (ver.1)

Daggermouth Tabs
Rating:
0/5 (0 votes)
Sing It Again Rookie Biatch! lessons Tabs too difficult? Try these video lessons and learn fast
                -------------------------------------------------------------------------------
          Daggermouth - Sing It Again Rookie Biatch!
-------------------------------------------------------------------------------



its not the best tab ever, corrections welcomed.

a Couple things to know:

-There are 2 guitars, but for the most part they play the same thing (that i can hear),
except in a few sections, during htose parts, i labeled Lead/Rhythm.

-aint no party like a daggermouth party cuz' a daggermouth part don't stop!



Intro

E----------------------------------------------------------------------------|
B----------------------------------------------------------------------------|
G--------------------------------9--9-9-9-9--9-/-10-/-12--12-12-12-12--------|
D--2--2-2-2-2-2--6-7--7-7-7-7-7--9--9-9-9-9--9-/-10-/-12--12-12-12-12--------|
A--2--2-2-2-2-2--6-7--7-7-7-7-7--7--7-7-7-7--7-/-8--/-10--10-10-10-10--------|
E--0--0-0-0-0-0--4-5--5-5-5-5-5----------------------------------------------| x2
      * * * * *       * * * *       * * * *               *  *  *  *

E-------------------|
B-------------------|
G---9~--------------|
D---9~--------------|
A---7~--------------|
E-------------------|


"As I stand here before your grave I know my life has changed..."

E---------------------------------------------------------------------------|
B---------------------------------------------------------------------------|
G--9-9-9-9-9-9----------------9-9-9-9-9-9-----------------------------------|
D--9-9-9-9-9-9-7-7-7-7-6-6-6--9-9-9-9-9-9-7-7-7-7-6-6-6---------------------|
A--7-7-7-7-7-7-7-7-7-7-6-6-6--7-7-7-7-7-7-7-7-7-7-6-6-6---------------------|
E--------------5-5-5-5-4-4-4--------------5-5-5-5-4-4-4---------------------|

"What else can I say, you were like a father to me" (not exact strumming pattern)

E---------------------------------------------------------------------------|
B---------------------------------------------------------------------------|
G--6---6---6---6---6/4-/-9---4---4---4---4---4---4---4---4------------------|
D--6---6---6---6---6/4-/-9---4---4---4---4---4---4---4---4------------------|
A--4---4---4---4---4/2-/-7---2---2---2---2---2---2---2---2------------------|
E---------------------------------------------------------------------------|

"And I know I surely cant let go..."
E---------------------------------------------------------------------------|
B---------------------------------------------------------------------------|
G--9-9-9-9-9-9----------------9-9-9-9-9-9-----------------------------------|
D--9-9-9-9-9-9-7-7-7-7-6-6-6--9-9-9-9-9-9-7-7-7-7-6-6-6---------------------|
A--7-7-7-7-7-7-7-7-7-7-6-6-6--7-7-7-7-7-7-7-7-7-7-6-6-6---------------------|
E--------------5-5-5-5-4-4-4--------------5-5-5-5-4-4-4---------------------|

"...of this dream"    "...Nothing will come between you & me"
E---------------------------------------------------------------------------|
B---------------------------------------------------------------------------|
G--6---6---6---6---6/4-/-9---4---4---4---4---4---4---4---4------------------|
D--6---6---6---6---6/4-/-9---4---4---4---4---4---4---4---4------------------|
A--4---4---4---4---4/2-/-7---2---2---2---2---2---2---2---2------------------|
E---------------------------------------------------------------------------|

"I promised you the day i left town"
E---------------------------------------------------------------------------|
B---------------------------------------------------------------------------|
G--2--2-2-2-2-2-2-2-2--4--4-4-4-4-4-4-4-4-----------------------------------|
D--2--2-2-2-2-2-2-2-2--4--4-4-4-4-4-4-4-4-----------------------------------|
A--0--0-0-0-0-0-0-0-0--2--2-2-2-2-2-2-2-2-----------------------------------|
E---------------------------------------------------------------------------|
      * * * * * * * *     * * * * * * * *

                                    ..."I wont let you down "

Rhythm Guitar          (not exact strum pattern)
E---------------------------------------------------------------------------|
B---------------------------------------------------------------------------|
G--4--4--4--4--4--4--4--4--4--4--4--4--4--4--4--4--4--4--4--4--4--4---------|
D--4--4--4--4--4--4--4--4--4--4--4--4--4--4--4--4--4--4--4--4--4--4---------|
A--2--2--2--2--2--2--2--2--2--2--2--2--2--2--2--2--2--2--2--2--2--2---------|
E---------------------------------------------------------------------------|

Lead (this part sounds really sketchy, but here it is anyways)
E---------------------------------------------------------------------------|
B---------------------------------------------------------------------------|
G----------------------7-7-7-7-7-7-9-9-9-9-9-9-12-12-12-12-12-12-9-9-9------|
D----------------------x-x-x-x-x-x-x-x-x-x-x-x--x--x--x--x--x--x-x-x-x------|
A----------------------5-5-5-5-5-5-7-7-7-7-7-7-10-10-10-10-10-10-7-7-7------|
E---------------------------------------------------------------------------|

"I promised you the day i left town"
E---------------------------------------------------------------------------|
B---------------------------------------------------------------------------|
G--2--2-2-2-2-2-2-2-2--4--4-4-4-4-4-4-4-4-----------------------------------|
D--2--2-2-2-2-2-2-2-2--4--4-4-4-4-4-4-4-4-----------------------------------|
A--0--0-0-0-0-0-0-0-0--2--2-2-2-2-2-2-2-2-----------------------------------|
E---------------------------------------------------------------------------|
      * * * * * * * *     * * * * * * * *

                                    ..."I wont let you down "

Rhythm Guitar
E---------------------------------------------------------------------------|
B---------------------------------------------------------------------------|
G--4--4--4--4--4--4--4--4--4--4--4--4--4--4--4--4--4--4--4--4--4--4---------|
D--4--4--4--4--4--4--4--4--4--4--4--4--4--4--4--4--4--4--4--4--4--4---------|
A--2--2--2--2--2--2--2--2--2--2--2--2--2--2--2--2--2--2--2--2--2--2---------|
E---------------------------------------------------------------------------|

Lead (this part sounds really sketchy, but here it is anyways)
E---------------------------------------------------------------------------|
B---------------------------------------------------------------------------|
G----------------------7-7-7-7-7-7-9-9-9-9-9-9-12-12-12-12-12-12-9-9-9------|
D----------------------x-x-x-x-x-x-x-x-x-x-x-x--x--x--x--x--x--x-x-x-x------|
A----------------------5-5-5-5-5-5-7-7-7-7-7-7-10-10-10-10-10-10-7-7-7------|
E---------------------------------------------------------------------------|

end with this (not the song, just this part)
E-------------------|
B-------------------|
G---7~--------------|
D---7~--------------|
A---5~--------------|
E-------------------|

Rhythm comes in with this at 1:30 (keep this up until about 2:10)

E-------------------|
B-------------------|
G----------2-2------|
D--2-2--X8-2-2--X8--|
A--2-2-----0-0------|
E--0-0--------------|

Lead guitar comes with this tapped part

If you dont know how, i hope this makes sense:

1. Keep your left finger placed on 5th fret
2. With your right finger, tap the 7th fret
(as your finger moves off it, you should hear the "5" on the tab)
3.After you hear the 5th fret, let go of it to, you should hear the "0")

same deal with the next part, except instead of tapping the 7th fret, you do 9th.

Simply tap 7th fret for the last one.

E-----------------------------------------------------------|
B--T7p5p0--T9p5p0--T7p5p0--T9p5p0--T7p0---------------------|
G-----------------------------------------------------------|
D-----------------------------------------------------------|
A-----------------------------------------------------------|
E-----------------------------------------------------------|


this is a little variation that comes on a little later.
E----------------------------------T7p0---------------------|
B--T7p5p0--T9p5p0--T7p5p0--T9p5p0---------------------------|
G-----------------------------------------------------------|
D-----------------------------------------------------------|
A-----------------------------------------------------------|
E-----------------------------------------------------------|

do this whole tapping thing until about 2:10


The end is kind of hard to hear, im working on it.

| /  slide up
| \  slide down
| h  hammer-on
| p  pull-off
| ~  vibrato
| +  harmonic
| x  Mute note
            

comments powered by Disqus
↑ Back to top | Daggermouth Tabs for Sing It Again Rookie Biatch!. Lyrics for acoustic guitar and electric guitar. Tablatures and chords are parodies/interpretations of the original songs. You may use it for private study, scholarship, research or language learning purposes only