» » »

Daggermouth, Hawt Lixx Bass tabs (ver.1)

Artists:  A B C D E F G H I J K L M N O P Q R S T U V W X Y Z # 

Hawt Lixx Bass tabs (ver.1)

Daggermouth Tabs
Rating:
0/5 (0 votes)
Hawt Lixx lessons Tabs too difficult? Try these video lessons and learn fast
                Tuning: Eb Ab Db Gb

h = Hammer On

Part 1 (x3)

|-----------------------------------------|
|-----------------------------------------|
|-4-4-0-4---4-4-0-0---4-4-0----4-4-0------|
|---------------------------0---------2-2-|

Part 2 (x1)

|---------------------------------------|
|---------------------------------------|
|-4-4-0-4---4-4-0-0---4-4-0-------------|
|---------------------------0-0-0-0-2-2-|

Part 3 (x2)

|------------------------------------------|------------------------------------------------|
|---------------1-2------------------------|---------------1-2------------------7-7-6-6-6-6-|
|-4-4-4-4-4-4-2-----2-2-0-0-0-0-0-0---0----|-4-4-4-4-4-4-2-----2-2-0-0-0-0-0-0--------------|
|----------------------------------2h4---4-|------------------------------------------------|

Part 4 (x4)

|-------------------------------------------------|
|-------------------------------------------------|
|-2-2-2-2-2-2-4-4-4-4-4-4-0-0-0-0-0-0-0-0-0-0-0-0-|
|-------------------------------------------------|

Part 5 (x1)

|---|
|---|
|-4-|
|---|

Part 6 (x1)

|---------------------------|---------------------------------------------|
|--1-2----------------------|---------------1-2---------------7-7-6-6-6-6-|
|-2---2-0-0-0-0-0-0-----0---|-4-4-4-4-4-4-2-----2-0-0-0-0-0-0-------------|
|-------------------2h4---4-|---------------------------------------------|

Part 7 (x2)

|------------------------------------------|------------------------------------------------|
|---------------1-2------------------------|---------------1-2------------------7-7-6-6-6-6-|
|-4-4-4-4-4-4-2-----2-2-0-0-0-0-0-0---0----|-4-4-4-4-4-4-2-----2-2-0-0-0-0-0-0--------------|
|----------------------------------2h4---4-|------------------------------------------------|

Part 8 (x4)

|-------------------------------------------------|
|-------------------------------------------------|
|-2-2-2-2-2-2-4-4-4-4-4-4-0-0-0-0-0-0-0-0-0-0-0-0-|
|-------------------------------------------------|

Part 9 (x1)

|-------------------------|
|-------------------------|
|-4-4-4-4-0---4-4-4-4-0---|
|-------------------------|

Part 10 (x6)

|-------------------------|
|-------------------------|
|-4-4-0-4-0-0-------------|
|-------------0-0-0-2-2-2-|

End (x1)

|---|
|---|
|-4-|
|---|
            
Submit corrections

comments powered by Disqus
↑ Back to top | Daggermouth Bass for Hawt Lixx. Lyrics for acoustic guitar and electric guitar. Tablatures and chords are parodies/interpretations of the original songs. You may use it for private study, scholarship, research or language learning purposes only