» » »

Daggermouth, Frisky Business Bass tabs (ver.1)

Artists:  A B C D E F G H I J K L M N O P Q R S T U V W X Y Z # 

Frisky Business Bass tabs (ver.1)

Daggermouth Tabs
 Rating:
4/5 (4 votes)
Frisky Business lessons Tabs too difficult? Try these video lessons and learn fast
1
                Tuning: Eb Ab Db Gb

Intro (x1)

|---------|
|-3-5-----|
|-----3-5-|
|---------|

|------------------------------------------------------------------|
|-3-3-3-3----------------------------------------------------------|
|------------------3-3-3-3-0-0---------------------3-3-3-3-0-0-----|
|----------3-3-3-3-------------3-3-1-1-1-1-3-3-3-3-------------3-3-|

Verse 1 (x2)

|-------------------------------------------------------------------------------------|
|-3-3-3-3-3-3-3-3-3-3-----------------------------------------------------------------|
|---------------------3-3-3-3-3---0---0-0-0-0-0-3-3-3-3-3-----------------------------|
|-------------------------------3---1---------------------1-1--1-1-1--1-1-1--1-1-1--1-|

Chorus 1 (x4)

|-------------------------|
|-------------------------|
|-3---3---3---------------|
|---0---0---0-1-0-3-0-3-0-|

End Chorus (x1)

|-------------|
|-------------|
|-0-0-0-3-----|
|---------3-1-|

Verse 2 (x2)

|-------------------------------------------------------------------------------------|
|-3-3-3-3-3-3-3-3-3-3-----------------------------------------------------------------|
|---------------------3-3-3-3-3---0---0-0-0-0-0-3-3-3-3-3-----------------------------|
|-------------------------------3---1---------------------1-1--1-1-1--1-1-1--1-1-1--1-|

Chorus 2 (x1)

|-------------------------------------------|
|-------------------------------------------|
|-3---3---3---------------3---3---3---------|
|---0---0---0-1-0-3-0-3-0---0---0---0-1-0-3-|

Verse 3 (x2)

|-----------------------------------------------------------------------------------------|
|-----------------------------------------------------------------------------------------|
|-0-0-0-0-0-0-0-0-0-0-0-0-0---3-3-3-3-3-3-3-3-3-3-3-3-3-3---------------------------------|
|---------------------------3-----------------------------1-1-1-1-1-1-1-1-1-1-1-1-1-1-1-1-|

Chorus 3 Intro (x1)

|-----------|
|-----------|
|-----------|
|-1-0-3-0-3-|

Chorus 3 (x4)

|-------------------------|
|-------------------------|
|-3---3---3---------------|
|---0---0---0-1-0-3-0-3-0-|

End (x1)

|-------------|
|-------------|
|-0-0-0-3-----|
|---------3-1-|
            
Submit corrections

comments powered by Disqus
↑ Back to top | Daggermouth Bass for Frisky Business. Lyrics for acoustic guitar and electric guitar. 1 Tablatures and chords are parodies/interpretations of the original songs. You may use it for private study, scholarship, research or language learning purposes only