» » »

Daggermouth, Fact: Mike Peecher Rollerblades Bass tabs (ver.1)

Artists:  A B C D E F G H I J K L M N O P Q R S T U V W X Y Z # 

Fact: Mike Peecher Rollerblades Bass tabs (ver.1)

Daggermouth Tabs
 Rating:
4/5 (4 votes)
Fact: Mike Peecher Rollerblades lessons Tabs too difficult? Try these video lessons and learn fast
                Tuning: Eb Ab Db Gb


Part 1 (x1)

|----------|
|-------6--|
|----------|
|--4--4--4-|
   

Part 2 (x4)

|-------------------------|
|-------------------4-4-4-|
|-------6-6-6-2-2-2-------|
|-4-4-4-------------------|

Part 3 (x4)

|-----------------------------|-----------------------|
|-----------------------------|---------------------4-|
|-----------------------------|-----------------6-2---|
|-4-4-4-4-4-4-4-4-4-4-4-4-2-4-|-4-4-4-4-4-4-4-4-------|

End (x1)

|---|
|---|
|---|
|-4-|
            
Submit corrections

comments powered by Disqus
↑ Back to top | Daggermouth Bass for Fact: Mike Peecher Rollerblades. Lyrics for acoustic guitar and electric guitar. Tablatures and chords are parodies/interpretations of the original songs. You may use it for private study, scholarship, research or language learning purposes only