» » »

Dan Don Get Off Your Fucking Phone Bass tabs (ver.1)

Artists:  A B C D E F G H I J K L M N O P Q R S T U V W X Y Z # 

Dan Don Get Off Your Fucking Phone Bass tabs (ver.1)

Daggermouth
Rating:
0/5 (0 votes)

Hard to play? Try these video lessons and learn fast.
                Tuning: Eb Ab Db Gb

Part 1 (x2)

|-------------------------|
|-------------------------|
|------------------0--0-2-|
|-2-2-0-2---2-2-0---------|

Part 2 (x2)

|-----------------------------------------------------------|
|-----------------------------------------------------------|
|-------------------------------------0-0-0-0-0-0-0-2-2-2-2-|
|-2-2-0-2-2-2-2-2-2-2-2-2-2-2-2-2-2-0-----------------------|

Part 3 (x2)

|-----------------------------------------------------------|
|-----------------------------------------------------------|
|-------------------------------------0-0-0-0-0-0-0-2-2-2-2-|
|-2-2-0-2-2-2-2-2-2-2-2-2-2-2-2-2-2-0-----------------------|

End (x1)

|---------|
|---------|
|---------|
|-2-2-0-2-|
            
Hard to play? Try these video lessons and learn fast. | Correct




comments powered by Disqus
↑ Back to top | Tablatures and chords are parodies/interpretations of the original songs. You may use it for private study, scholarship, research or language learning purposes only